close

Вход

Забыли?

вход по аккаунту

?

Бах Иоган Себостьян - 2-Part Invention #13 in A-minor

код для вставкиСкачать
2-Part Invention #13 in A-minor
[e:---------------------------------------------------------------------
B:-----------1--0-----0--3--1-----1-----------0--------------1--0------
G:--------2-----------------2-----------1-----------2-----2------------
D:-----2-----------2-----------------------------0-----2---------------
A:--0-----0-----------------0-----0--3--2-----2-----3-----0--------2---
E:--------------0-----4--------0-----------0--------------------4------
e:----------------------------------------0-----0----------------------
B:--0--3--1----------------------------------1--------1----------------
G:-------------------------------------------------2---------0---------
D:-------------------------------0------------------------2-----3------
A:--------0------0--3--2------2-----3--------0-----3------0-----5--0---
E:--0---------0------------0-------------------------------------------
e:--------------1------------------------------------------------------
B:--------3-------------3--0--3-----0------------------------------1---
G:--2----------------------------0-------------------------------------
D:--------0--3-------------0-----------0--3--2--------2----------------
A:-----0--------0--2-------------------2-----------3-----0-------------
E:--1----------------------------3--------------3----------------------
e:-----------------------------------------------------------------0---
B:-----1-----3-----0-----0-----1--------------------0-----1-----1------
G:--2-----------------0--------------2-----2-----0-----0-----0---------
D:--------3-----------------2-----------3-----0-----3------------------
A:--3-----5--2--------2-----3--0--------5-----------------3------------
E:--------------3-----------------1-----------3------------------------
e:-----------1--0------------------------------------------------------
B:--3-----3------------------1--------------------------------------1--
G:-----0---------------------2-----2--1--------------------------1--2--
D:---------------------------2-----3--2----3--2--0---------------2--2--
A:---------------------------------3--2-------------3--2--2h3p2--2-----
E:--------------------------------------------0------------------------
! (_____________________ ____________________)
! V
! Концовку я придумал сам, т.к. лениво
! было дальше писать (это только 1/3).
! У Баха там еще много чего интересного.
Документ
Категория
Ноты, аккорды
Просмотров
19
Размер файла
3 Кб
Теги
part, inventions, бах, себостьян, иоган, minor
1/--страниц
Пожаловаться на содержимое документа