close

Вход

Забыли?

вход по аккаунту

?

Бах Иоган Себостьян - Brandeburg Concerto No.5

код для вставкиСкачать
Brandeburg Concerto No.5
[E|-------------------------------------------------|
B|-------------------------------------------------|
G|-------------------19-19-18-19-18-16-------------|
D|-------16-16-19-19-------------------19-17-16----|
A|-17-17----------------------------------------19-|
E|-------------------------------------------------|
E|-------------------------------------|
B|--------------------------17------17-|
G|-------------------19-19-------------|
D|-------16-16-19-19------------19-----|
A|-17-17-------------------------------|
E|-------------------------------------|
E|-------------------------19-19-17-17-------------|
B|-19-19-17-17-20-20-19-19-------------------------|
G|-------------------------------------18-18-19-19-|
D|-------------------------------------------------|
A|-------------------------------------------------|
E|-------------------------------------------------|
E|-------------------------------------------------|
B|-------------------------------------------------|
G|-------------16-16-------------------------------|
D|-17-17-16-16-------19-19-------------------17-17-|
A|-------------------------16-16-17-17-------------|
E|-------------------------------------17-17-------|
E|---------------------------------------------------|
B|---------------------------------------------------|
G|------------------------------------------16-18----|
D|-16----16----------------------16-17---19-------19-|
A|----19----17-19-19-------17-19---------------------|
E|-------------------17-17---------------------------|
E|-------------------------------------19-19-17-17-|
B|-------------17-17-------20-20-19-19-------------|
G|-19-19-18-18-------19-19-------------------------|
D|-------------------------------------------------|
A|-------------------------------------------------|
E|-------------------------------------------------|
|---------------------------------------------|
|20p19-17----17----------------------17-------|
|---------19-------16-17----16-19-18----------|
|---------------19-------19-------------19-17-|
|---------------------------------------------|
|---------------------------------------------|
E|----------------------------------------------|----|
B|----------------------------------------------|----|
G|----------------------------------------------|----|
D|-16-------17-16-19------------17-16-----------|----|
A|----17-19----------17-16------------19-19--17-|-17-|
E|-------------------------19-------------------|----|]
Документ
Категория
Ноты, аккорды
Просмотров
5
Размер файла
3 Кб
Теги
concerto, brandeburg, бах, себостьян, иоган
1/--страниц
Пожаловаться на содержимое документа