close

Вход

Забыли?

вход по аккаунту

?

Бах Иоган Себостьян - Crab Canon

код для вставкиСкачать
Crab Canon
[E|--------------|------------|----------------|----------------|
B|--------------|------------|----------------|----------------|
G|--------------|0-------1---|--------~---0---|0---------------|
D|--------1-----|------------|--------~-------|----4-------3---|
A|3-------------|------------|2---------------|----------------|
E|--------------|------------|----------------|----------------|
E|----------|--------1-------|------1---------|----------------|
B|--------1-|0-1-3-4---4-3-1-|3---3---4-3-1-0-|--0-1-4-3-1-0---|
G|----0-----|----------------|--0-------------|2-------------2-|
D|--1-------|----------------|----------------|----------------|
A|3---------|----------------|----------------|----------------|
E|----------|----------------|----------------|----------------|
E|--------------|--------------|--------------|----------------|
B|--------------|--------------|--------------|----------------|
G|--------------|--------------|--------------|----------------|
D|3---2-------1-|1---0---------|------------3-|1-------0-------|
A|--------------|--------4---3-|2-------3-----|----------------|
E|--------------|--------------|----3---------|----------------|
E|--------------|---------------|---------------|--------------|
B|-----2-1------|---------------|---------------|-----1-0------|
G|0-1-3----3-1-0|--0-1-3-1-0----|------0-------1|0--------1-0--|
D|--------------|3-----------3-1|0-1-3---3-1-0--|--3-1--------3|
A|--------------|---------------|---------------|--------------|
E|--------------|---------------|---------------|--------------|
E|----------|----------------|----------------|----------------|
B|----------|------1---------|------0-1-------|----------------|
G|----------|0---0---0-------|--0-1---------0-|1-------0-------|
D|--------1-|--3-------1-0-1-|3---------1-3---|--0-1-3---3-1-0-|
A|3---------|----------------|----------------|----------------|
E|----------|----------------|----------------|----------------|
E|-----------------|----------|---------------|----------------|
B|---------1-------|----------|---------------|----------------|
G|-------0---0---0-|----------|---------------|----------------|
D|-1-0-1-------3---|1---------|0-------1------|3---------------|
A|-----------------|--------3-|---------------|----3-------2---|
E|-----------------|----------|---------------|--------3-------|
E|---------------|---------------|---------------|--------1----|
B|---------------|------1-2------|--0-1-3-4-1-0--|0-1-3-4---3-3|
G|----0-1-3-1-0--|0-1-3-----3-1-0|2-------------2|-----------0-|
D|1-3-----------3|---------------|---------------|-------------|
A|---------------|---------------|---------------|-------------|
E|---------------|---------------|---------------|-------------|
E|--------------|--------------|--------------|----------------|
B|--------------|--------------|--------------|----------------|
G|--------------|--------------|------------0-|0---~-----------|
D|--------0---1-|1---2-------3-|3---4---------|----~-----------|
A|3---4---------|--------------|--------------|--------2-------|
E|--------------|--------------|--------------|----------------|
E|------1---------|----------------|
B|1-3-4---4-3-1-0-|1---------------|
G|----------------|----0-----------|
D|----------------|--------1-------|
A|----------------|------------3---|
E|----------------|----------------|
E|----------------|----------------|
B|----------------|----------------|
G|1-------0-------|----------------|
D|----------------|1---------------|
A|----------------|--------3-------|
E|----------------|----------------|]
Документ
Категория
Ноты, аккорды
Просмотров
11
Размер файла
4 Кб
Теги
crab, бах, себостьян, иоган, canon
1/--страниц
Пожаловаться на содержимое документа