close

Вход

Забыли?

вход по аккаунту

?

Бах Иоган Себостьян - Figue

код для вставкиСкачать
Figue
[E|---------------------------|---------------------------------|
B|-1-0-1-------------------3-|-----1-0-1---3-----0-1-------0---|
G|---------0---1---1-0-1-----|-0-------------------------------|
D|---------------------------|-----------------3-------------3-|
A|---------------------------|---------------------------------|
E|---------------------------|---------------------------------|
E|-----3-2-3----------3-2-3--5-|----3-2-3--5-------------------|
B|---1-0-------1---4--4---3----|-3---------------3-4-------3---|
G|-------2-0-----------------5-|-3--2---3--5---5---0---2-----5-|
D|-1---------3-1-0-------------|---------------4-----------4---|
A|-----------------3-----------|-------------------------------|
E|-----------------------------|-------------------------------|
E|-------------------------------|-3-1-3-----------------------|
B|----4-3-4----------6-4-6-------|---------0---1--3--4--6------|
G|-3----------0---1----------1-3-|-3---------0-1-----------5-4-|
D|-5----------0-1-3--6-----0-3-5-|-------1-3------3--1--0------|
A|----------3--------------------|-----------------------------|
E|-------------------------------|-----------------------------|
E|--------------------4--3---1-|-------------------------------|
B|-----4-3-1----------6--4---3-|-4---3---4---6---0---1---3-----|
G|-5---------2-1-0-------------|-----1---0-------0-----------0-|
D|-----------------3-----------|-------------3-------3-1-3---1-|
A|-----------------------------|-------------------------------|
E|-----------------------------|-------------------------------|]
Документ
Категория
Ноты, аккорды
Просмотров
3
Размер файла
2 Кб
Теги
figue, бах, себостьян, иоган
1/--страниц
Пожаловаться на содержимое документа