close

Вход

Забыли?

вход по аккаунту

?

Бах Иоган Себостьян - Minuet

код для вставкиСкачать
Minuet
!(part #1)
[---|---|---|---|---|---|---|---|---|---|---|---|---|---|---|---|
E -------------|---------------|---------------|---------------|
B -5---5-3-5---|---1---3-0-1---|-----------0---|---1-0-1-3-1-3-|
G -5---4---0---|---2-----------|---0---2-------|---------------|
D -------------|---------------|---2---3---0---|---------------|
A -------------|---------------|---------------|---3===--------|
E -------------|---------------|---------------|---------------|
4 4 1 4 1 4 1
3 2 2 3
---|---|---|---|---|---|---|---|---|---|---|---|---|---|---|---|
E -0-----------|-------0-1-3-0-|-------1---0---|---------------|
B -1---3---3-45|---5-3-----1---|---1---0---1---|---3========---|
G -----4---0---|---5-----------|---2-----------|---0========---|
D -------------|---------------|---------------|---------------|
A -------------|---------------|---------------|---------------|
E -------------|---------------|---------------|---------------|
1 1 44 4 1 2 4 1 1 4
2 3 1 2 1]
!PLAY PART #1 TWICE.
!(part #2)
[---|---|---|---|---|---|---|---|---|---|---|---|---|---|---|---|
E -3---3-2-3---|---------------|---3---3-2-3---|---------------|
B -0-----------|---0---1---0---|---1---0-------|---------------|
G -----2---0---|---------2-----|-----------2---|---2-0=====----|
D -------------|---3-----------|---2---0-------|---------------|
A -------------|---------------|-----------3---|---2-----------|
E -------------|---------------|---------------|------------3--|
4 2 4 2 4 2
1 3 1 2 1
2 3 3
---|---|---|---|---|---|---|---|---|---|---|---|---|---|---|---|
E -1---0-------|---------------|-------1---0---|---------------|
B -0-------3---|---1---1-3-5---|---5-3---------|---3-1-3-0-1-3-|
G ---------4---|---2---2-4-5---|---4---2---1---|---2-------2---|
D -------------|---------------|---------------|-----------3---|
A -------------|---0-----------|---------------|---0-----------|
E -4-------4---|---------------|---0-------0---|---------------|
1 1 1 1 1 4 4 1 1 4 4
2 2 2 2 3 3 2 2
4 3
---|---|---|---|---|---|---|---|---|---|---|---|---|---|---|---|
E -0-----------|---------------|---0---0---0---|---------------|
B -------------|---------------|---------3-----|---1---3-0-1---|
G -2---2---1---|---2=========--|---0-----------|---------------|
D -----0---2---|---------------|---------------|---------------|
A -3-----------|---0=========--|---3-----------|---0-----------|
E -------------|---------------|-----------3---|---------------|
---|---|---|---|---|---|---|---|---|---|---|---|---|---|---|---|
E -------------|---------------|-----------1---|---------1-0---|
B -------------|---------------|-----1-0-3-----|-----0-3-------|
G ---0-----0-3-|-------3-0-2---|-------------2-|---0-------0---|
D -2-----2-----|-------------3-|---0-----------|---------------|
A -----3=======|-----3---------|-----------3---|---2=====--3---|
E -------------|---1========---|---------------|---------------|
2 3 2 4 1 3 4 2 4 4 3 2 2 4 3
---|---|---|---|---|---|---|---|---|---|---|---|---|---|---|---|
E -------------|---------------|---------------|---------------|
B -3-------0---|---1========---|---------------|---------------|
G -----0-------|---------------|---------------|---------------|
D -3---2---3---|---2========---|---------------|---------------|
A -------------|---3========---|---------------|---------------|
E -1---3---3---|---------------|---------------|---------------|
4
3 2 4
1 3 3]
!PLAY TWICE
Документ
Категория
Ноты, аккорды
Просмотров
3
Размер файла
4 Кб
Теги
бах, себостьян, иоган, minuet
1/--страниц
Пожаловаться на содержимое документа