close

Вход

Забыли?

вход по аккаунту

?

Бах Иоган Себостьян - Orchestral Suite No.3 in D Major

код для вставкиСкачать
Orchestral Suite No.3 in D Major
[E|--------------------------------------------------|
B|-15-----------------------------15-------15----14-|
G|----14----14-----------------14-------------------|
D|-------16--------16-14-17-16-------16-14----14----|
A|--------------17----------------------------------|
E|--------------------------------------------------|
E|-------------14-17-16--19-17-------17----17----16-|
B|-15----15-17-----------------17-------------------|
G|----14--------------------------18----16----16----|
D|--------------------------------------------------|
A|--------------------------------------------------|
E|--------------------------------------------------|
E|-17-----------------------------------------------|
B|----17-------17-19-17-19-20-17--------------------|
G|-------18-19-------------------------18-19-18--19-|
D|-------------------------------19-21--------------|
A|--------------------------------------------------|
E|--------------------------------------------------|
E|-------------------------------14-15-14-----------|
B|-17----------17-------------17----------17-15-14--|
G|----19-18-19----19-18-16-15-----------------------|
D|--------------------------------------------------|
A|--------------------------------------------------|
E|--------------------------------------------------|
E|----14--------------------14-17-------14-15-14-15-|
B|-15----15-14-15-17--15-17-------16-17-------------|
G|--------------------------------------------------|
D|--------------------------------------------------|
A|--------------------------------------------------|
E|--------------------------------------------------|
E|-17----------17----------------------14-15--17-14-|
B|----13-12-13----13-12-------14-16-17--------------|
G|----------------------14-16-----------------------|
D|--------------------------------------------------|
A|--------------------------------------------------|
E|--------------------------------------------------|
E|-15-------------------15-14-------------------14-|
B|----17----15-14-17----------15----------15-------|
G|-------16----------14----------14-17-16----12----|
D|-------------------------------------------------|
A|-------------------------------------------------|
E|-------------------------------------------------|
E|-12-------------------12-------------12-14-15-12-|
B|----14----12-11-14-------15-12-14-15-------------|
G|-------13----------11----------------------------|
D|-------------------------------------------------|
A|-------------------------------------------------|
E|-------------------------------------------------|
E|-----------||
B|-15~-------||
G|-----------||
D|-----------||
A|-----------||
E|-----------||]
Документ
Категория
Ноты, аккорды
Просмотров
9
Размер файла
3 Кб
Теги
major, orchestral, бах, suite, себостьян, иоган
1/--страниц
Пожаловаться на содержимое документа