close

Вход

Забыли?

вход по аккаунту

?

Бах Иоган Себостьян - Prelude Cello Suite III

код для вставкиСкачать
Prelude Cello Suite III
[E|-------------------------------------|
B|--2--5--2----------------------5-----|
G|-----------3-----1--3--4--6h7-----6--|
D|--------------4----------------------|
A|-------------------------------------|
E|-------------------------------------|
E|----7-------------------------------|
B|-------7-----------------7--9--10--7|
G|-7--------7-----6--7--9-------------|
D|-------------9----------------------|
A|------------------------------------|
E|------------------------------------|
E|-----------------------------------------|
B|-9--12--9--------------------9--10-12--9-|
G|-----------10------8--10-11--------------|
D|---------------11------------------------|
A|-----------------------------------------|
E|-----------------------------------------|
E|-----------------------------------------------|
B|-10--12--10--9---------------------------------|
G|----------------11-----------------------------|
D|--------------------12--11--9------------------|
A|----------------------------------12--11--9--7-|
E|-----------------------------------------------|
E|-------------------------------------|
B|--------------------------9--6--7----|
G|-----------------6--7----------------|
D|--------6--8--9--------9-----------9-|
A|-----9-------------------------------|
E|-10----------------------------------|
E|----------------4---------------|
B|----------7--6------------6--7--|
G|-------4---------------6--------|
D|----6---------------------------|
A|-4------------------------------|
E|--------------------------------|]
Документ
Категория
Ноты, аккорды
Просмотров
5
Размер файла
2 Кб
Теги
prelude, бах, suite, себостьян, иоган, iii, cells
1/--страниц
Пожаловаться на содержимое документа