close

Вход

Забыли?

вход по аккаунту

?

Бах Иоган Себостьян - The Well-Tempered Clavier

код для вставкиСкачать
The Well-Tempered Clavier
!This is a little riff in (I believe) the second prelude of
!Bach`s The Well- Tempered Clavier. It`s worthy of gods with
!truckloads of distortion. If I can remember correctly, it`s
!in <C> or <C#> minor.
!
[E|--------------------------------|
B|--------------------------------|
G|-----------------4---7-4--------|
D|-------3-6-3---3---3-----6-3---3|
A|-----5-------7---------------7--|
E|-3-7----------------------------|]
! 1 4 2 1 3 1 4 1 2 1 4 1 3 1 4 1 &lt;-Fingers
[E|--------------------------------|
B|-----------------4---8-4--------|
G|---------5---------5-----5------|
D|-------5---5-4-5-----------6-5-6|
A|---3-6--------------------------|
E|-3------------------------------|]
! 1 1 4 3 3 3 1 2 1 2 4 1 2 3 2 3 &lt;-Fingers
[E|---------------------5----------|
B|---------4-------7-----7-4------|
G|-------5---5-4-5---5-------5-4-5|
D|-----4--------------------------|
A|--------------------------------|
E|-3-5----------------------------|]
! 1 3 1 2 1 2 1 2 4 1 3 4 1 2 1 2 &lt;-Fingers
Документ
Категория
Ноты, аккорды
Просмотров
16
Размер файла
1 Кб
Теги
tempered, clavier, бах, себостьян, иоган, well
1/--страниц
Пожаловаться на содержимое документа