close

Вход

Забыли?

вход по аккаунту

?

Бах Иоган Себостьян - Воздух. Сюита для оркестра №3 в D

код для вставкиСкачать
Воздух. Сюита для оркестра №3 в D
[ E||---0-----0-----0-----0-----|--0--5------------------------|
B||---1-----1-----1-----1-----|--1----6-3---0-1-0------------|
4 G||*--0-----0-----2-----2-----|--2--------5-----0----2-0-----|
/ D||*--------------------------|-----3---4---0---0------0-----|
4 A||---3--3--2--2--0--0--------|---------5--------------------|
E||---------------------3--3--|--1----------2---3--3---1--1--|
--3---------3-----0---------3-1-|--1--------0-1---------------1-0-|
------------------------3-2-----|-----3-1-3-----3---3-----1-0-----|
-----3-2-3----3-2---3-2---------|--2--2---2-------0---2-0---------|
-----2---0--0---2---------------|--0--0-----------0---------------|
----------------4---4---0---0---|---------3---3---2---2-----------|
--0-----------------------------|-------------------------3---3---|
_________________________________
| 1
--0--------2-3--------0---------|------------------------------------||
--1--------3---1----3-----3---1-|--0-----0-1----0--------------------||
--0--------0---0--5---0-2---2---|--0-2-2----------2-0---------------*||
---------------2--4---------0---|--0---2-----0--0---0-------0-3-2-0-*||
--3--3--2--2---0--0-------------|------3-----0------2-0-2-3----------||
------------------------2-------|--3------------2---3----------------||
_________________________
| 2
----------------------------||---------------------3-------0-------|
--0-----0-1----0------------||---0-----0-1-0---0-------2-3---------|
--0-2-2----------2-0--------||*--0-----0-----2---0---2-3-----2-3---|
--0---2-----0--0---0--------||*--0-----0---------------2---0---5-3-|
------3-----0------2--------||---------------------------------5---|
--3------------2---3--------||---3--3--1-----1-----0---------------|
------5-----3-1-0-1-------0---------|--------------------0-1-------0--|
--------------2---3---------3-1-0---|------0-----1-3-------0-------0--|
--2---0-------2---2-----2---------2-|--1-2---------------5---2-1-2----|
--2-3-------------0--0--------------|------0-2-3-2-3-0-2---0----------|
--4-----7-4---0---------3-------3---|--2-3-2---0-----0-------3-2-3----|
----------0-------------------------|------------------4-----------4--|
--------------------------------|----------0-----5----------3-2-|
--3-1-0---0-1-3-1-0-------------|--1-----1---3-1-7--------------|
--2-----2-2-----1---2-----2-----|--2-----0---0------------0-----|
--2---0---0-----0---2-----2-----|--0-----2-4-2---0--0-2-4-------|
--0-----3-----------0--0--------|--0--------------------3---3---|
------1---------0---------3--3--|--2--2--0---0------------------|
--0---3----------------------------|-------------0--------------1-0-|
----3-----------0-1-0--------------|--1--------0-1-3-3--0---0-1-0---|
--0-----0--2--2-----0----2-0-------|--0--2-3-2---2---2----2-----0---|
-----------2--0-----0------0---0---|----------------------------0---|
--2-----2--3---------------2-3---2-|-----3--------------------------|
--------------2-----3--3---1---1---|--0--0---1---1---2--2---3---3---|
-------------3-1-1---------------|----------------1-1---0---0----1-3-|
--5--2-0-2-3-5---3-2-3-----------|------------0-3-----3-0-1-1--------|
--4----------6---2-----2---2-----|--0-----0-0---0---0-------0--------|
-----2-----------0-----------3---|--0---3---2---0--------------------|
---------0---0-----------3-----3-|--2-2-2-------2---3---3---1--1-----|
--4--4---------------------------|----------3------------------------|
----------0-3-6-5-----------|------1-----------------0-1-1-0-----|
--1-----1----------------1--|--0-3-3-----------3-1-3-----------3-|
--0-----0-------------------|------2---2-0-2---0---4-----0---2---|
--2--0--2-------------------|--0---0-3-3---3-2-0---5---------3---|
--0--0----------3-----------|----------3---3---2---------3-------|
--------3---3---1--1--0--0--|----------------------3---------1---|
-------------------------------------||
--1-0-----0----0-1-0-1-0-1-1---------||
--0---2-----5--------------0--------*||
--2---------3--0-----------2--------*||
---------------------------3---------||
--3-----1---3--3---------------------||]
Документ
Категория
Ноты, аккорды
Просмотров
10
Размер файла
4 Кб
Теги
воздух, бах, себостьян, иоган, оркестр, сюита
1/--страниц
Пожаловаться на содержимое документа