close

Вход

Забыли?

вход по аккаунту

?

Бах Иоган Себостьян - Тетрадь Анны Магдалены Бах - Марш в G

код для вставкиСкачать
Тетрадь Анны Магдалены Бах - Марш в G
[ III---------- II III-------------------------- I
E||------------------2--3-----|--------------------------|
B||---3--------------------5--|--3--------------3--5--1--|
G||*-----------------2--4--5--|--4--------------4--5--2--|
D||*-----5--5--5--5-----------|-----5--5--5--5-----------|
A||---------------------------|--------------------------|
E||------3--3--3--3-----------|-----3--3--3--3-----------|
1 4 1 1 4 1 1
1 1 2 3 2 2
E|--------------3-----3---5h7-|--5\-3--2--0------------|
B|--0-----0--3-----3----------|--------------3---------|
G|-----0--------------0-------|-------------------5----|
D|----------------------------|--0-----2-----4---------|
A|--------------2-------------|-------------------5----|
E|--3-----3-------------------|------------------------|
2 3 4 3 1 1 2 1 1 2 1 4
3 1 1 2 3
tr
E|-----------3--3--------3-|--3--------3--3--------3--|--2----0---------------|
B|--0----------------------|-----1--1-----------------|----------3--2-------3-|
G|-----0--0--------0--0----|-----------------2--2-----|-------------2---------|
D|-------------------------|--------------------------|--0----4---------------|
A|-------------------------|--------0-----------4-----|------------------0----|
E|--3-----3-----------2----|--0-----------------------|-----------------------|
3 2 1 3 3 1 4 4 1 1 2 1 3 2 2 3
3 1]
! (4-ый палец зажимает 3 и 4 струны)
[ IV--------------------
E|--------------------------|--------------------||---------------------------|
B|--3-----------------------|--------------------||---------------------------|
G|-----2--2--------2--2-----|-------------------*||*--7-----------7-----------|
D|--0--------4--4--------4--|--0----------------*||*-----7--7--7-----4--4--4--|
A|--------------------------|--------------------||---5-----5-----5-----5-----|
E|--------------------------|--------------------||---------------------------|
3 1 4 4 4 4 4 4 1 1 1
2 2 2 2
E|--------------------------|--------------------------|
B|--------------------------|-----------0--1--0--1/-3--|
G|--7--------------------0--|--2--0--2-----------------|
D|-----0--0--0--0--2--4-----|--------0-----------2/-4--|
A|--5-----------------------|--------------------------|
E|--------------------0-----|--2-----------------------|
4 2 4 2 1
2 1 2
E|--------------------0--2--|--3-----------3-----------|
B|--1--0-----0-----3--------|-----3--3--3-----0--0--0--|
G|--0-----2-----0-----------|--------------------------|
D|--------0-----------0-----|--------------------------|
A|--------------------------|--------------------------|
E|--------------3-----------|--3-----3-----3-----3-----|
4 2 4 3
2
E|--3-----------------------|-----------0--1--0--1--3--|
B|--------------------0--1--|--3--1--3-----------------|
G|-----0--0--0--0--2--------|--------------------------|
D|--------------------------|--------------------------|
A|--------------------0-----|--2-----------------0--2--|
E|--3--3--3--3--3-----------|--------3-----------------|
4 1 1 4 1 4 4
2 2 3 2
E|--1--0-----0--------------|--0--------------2--2--3--|
B|--------3-----1--0--1--3--|-----1--1-----------------|
G|--------0-----------0-----|-----------2--2-----------|
D|--------------------------|--------------------------|
A|--3-----------3-----------|--3-----------------3-----|
E|--------------------------|--------------------------|
1 4 1 4 3 1 2 1 1 4
3 3 3
E|----------------2--2--3--|------------------------|-------------------------|
B|-3--0--0-----------------|--1----0----------------|-------------------------|
G|----------0--0-----------|----------2--2--0----0--|--0----------------------|
D|-------------------------|-------------0----------|-----0--0--------0--0----|
A|-2-----------------2-----|--0---------------------|-----------2--2--------2-|
E|-------------------------|-------3----------------|--3----------------------|
4 2 2 4 1 3 2
1 1
E|--------------------||
B|--------------------||
G|--0----------------*||
D|--0----------------*||
A|--2-----------------||
E|--3-----------------||]
Документ
Категория
Ноты, аккорды
Просмотров
8
Размер файла
5 Кб
Теги
марш, тетрадь, бах, магдалены, себостьян, анны, иоган
1/--страниц
Пожаловаться на содержимое документа