close

Вход

Забыли?

вход по аккаунту

?

Бах Иоган Себостьян - Тетрадь Анны Магдалены Бах - Минуэт в Dm

код для вставкиСкачать
Тетрадь Анны Магдалены Бах - Минуэт в Dm
!Обозначения:
!'=' 1/16
!-.-.-.-.- указывает на то, что нота должна звучать пока не кончится линия
!Размер: 3/4
!(Часть I)
[ | | | | | | | | |
e|---------1--0--------|-------------------|--------------------|
B|---------------3--2--|-3-----------------|--------------------|
G|---2-----------------|-------2-----3-.-.-|-------0--3--2--0---|
D|---0-.-.-.-.-.-2-.-.-|-3-.-.-.-.-.-5-.-.-|----2---------------|
A|---------------------|-------------------|-4-----------0-.-.-.|
E|---------------------|-------------------|--------------------|
| | | | | | | | |
e|---------------------|-------------------|-1-----0------------|
B|---------------------|-------------3--1--|----------3--1------|
G|---------------------|-------3--2--------|----------------3---|
D|---3-----2--3--0-----|-3-----------------|-------------2-.-.-.|
A|---5-.-.-0-.-.-------|-5-.-.-3-.-.-1-.-.-|-0-.-.-.-.-.--------|
E|---------------------|-------------------|--------------------|
| | | | | |
e|---------------------|------------------||
B|------=1-------------|------------------||
G|---2-3=--------------|------------------||
D|---3-.-.-3-----2-----|-3-.-.-.-.-.-.-.-.||
A|---------0-----3-----|-------3----------||
E|---------------------|-------------1----||]
!(Часть II)
[ | | | | | | | | |
e|---5--------5--3--1--|-0=1-3-------------|-1--------1--0------|
B|---------------------|-1-.-.-1-.-.-.-.-.-|----------------3---|
G|---------------3-.-.-|----------0--------|-------------3-.-.-.|
D|---3-.-.-3-----------|-------------2-----|-0-.-.-0------------|
A|---------------------|----------------3--|-------3-.-.--------|
E|---------------------|-------------------|--------------------|
| | | | | | | | |
e|------0--------------|-------------0--1--|-3--0-----6--5--3---|
B|---2=3---------------|----0--2--3--------|-------2-----2-.-.--|
G|---------2-.-.-.-.-.-|-2-----------------|-------2-.-.--------|
D|------------0--2--3--|-5-.-.-2-.-.-------|--------------------|
A|---0--2--4-----------|-------------4-.-.-|-0-.-.--------------|
E|---------------------|-------------------|--------------------|
| | | | | |
e|---1=0---0-----------|------------------||
B|---3--3--------2-----|-3-.-.-.-.-.-.-.-.||
G|---------0-----2-----|------------------||
D|---------------------|-0-----------0----||
A|---------------------|-------0----------||
E|---------------------|------------------||]
Документ
Категория
Ноты, аккорды
Просмотров
12
Размер файла
3 Кб
Теги
тетрадь, бах, магдалены, себостьян, анны, иоган, минуэт
1/--страниц
Пожаловаться на содержимое документа