close

Вход

Забыли?

вход по аккаунту

?

Бах Иоган Себостьян - Шутка

код для вставкиСкачать
Ўутка
!≈щЄ длительности не правильно, но лады все правильные, так что
!нужно разобрать. »грать нужно плавно и прот¤жно.
1|------10---------------------------|------10--9--9----9-12-9-10-------|
2|--12---12---12---------------------|----12-12-12-12-11----------12----|
3|-----------11----11---11-----------|--11------------------------------|
4|--------------------12---12-9------|----------------------------------|
1|-----10-------------------------|---------------7---------------------|
2|--12----12---12-----------------|-------------------------------------|
3|-----------11----11---11--------|--7-6-7--7-6-7---7-7p9--6------------|
4|--------------------12---12-9---|-------------------------------------|
1|--------------10--------------|----5-4-4-----7------------------------|
2|--7-6-7--7-6-7--7-7p9--6------|---7-7-7-7-6-9-9-10-9-10-9-------------|
3|------------------------------|--6------------------------------------|
4|------------------------------|---------------------------------------|
1|------------7------9-----10------10-9-7-9-------------------------------|
2|--7-10-7-6-7--7-6-7--7-6-7--7-6-7---------10-9-7-10--9p10--7------------|
3|------------------------------------------------------------------------|
4|------------------------------------------------------------------------|
1|---5-----------------------5---------|---7-------------------------------------|
2|--7-7-7---------------5-4-7-8-7-8-5--|--8-8-5-8-5-5------7-5-5---5-8-5-7-5-7-5-|
3|-------6-6-6-------5-4---------------|-----------6-6----7-7-7-7-6--------------|
4|----------7-7-4----------------------|---------------7-------------------------|
1|----------------------7-------7-5-5-----------------------|
2|---7-----8-----10----------------8-7-5--7-5p7-------------|
3|--7-7-6-7-7-6-7--7-6-7-7-6-7----------7-------7-----------|
4|----------------------------------------------------------|
1|-----------10-----------|-------------9-------------------|
2|--7-7--7-7----7-7p8-----|---------------------------------|
3|---9----9-----------9---|--9--9---9--9---9-9p11-----------|
4|------------------------|---12-----12-----------12--------|
1|-----10----------------------------------------------------------------------|
2|--12--12-10-8--12-10-8-----8-------------------------------------------------|
3|-----------------------11-9-11-9-------------------------9-------------------|
4|---------------------------------12-11-9-8--------9--8-11--12-11-12-9--------|
5|-------------------------------------------9-10-9----------------------------|
1|-------------------------------------------------------------|
2|---------------------12--------------------------------------|
3|-----------9-11---11-----11--9-------------------------------|
4|--9-11-12-------12--------------12-11-12--9------------------|
Документ
Категория
Ноты, аккорды
Просмотров
16
Размер файла
3 Кб
Теги
бах, себостьян, иоган, шутка
1/--страниц
Пожаловаться на содержимое документа