close

Вход

Забыли?

вход по аккаунту

?

Би2 - Мой рок-н-ролл

код для вставкиСкачать
БИ-2 и ЧИЧЕРИНА
Мой Рок-н-ролл
!(Слова:Лёва - Би-2,
!музыка: Шура - Би-2, Лёва - Би-2)
> G A
И то,что было набело
> Hm
Откроется потом
> G
Мой рок-н-ролл
> A Hm
Это не цель и даже не средство
Не новое,а заново
Один и об одном
Дорога в мой дом
И для любви это не место
> G A
Припев:Прольются все слова,как дождь
> Hm
И там,где ты меня не ждёшь
> G A Hm
Ночные ветры принесут тебе прохладу
>G A
На наших лицах без ответа
> Hm D
Лишь только отблески рассвета
>G A Hm
Того,где ты меня не ждешь
!(те же аккорды)
А дальше-это главное
Похожий на тебя
В долгом пути
Я заплету волосы лентой
И не способный на покой
Я знак подам тебе рукой
Прощаясь с тобой
Как будто с легендой
!Припев
!(И снова первый куплет)
И то,что было набело
Откроется потом
Мой рок-н-ролл
Это не цель и даже не средство
Не новое,а заново
Один и об одном
Дорога в мой дом
И для любви это не место
Перебор:играется при барре на втором ладу с ударением на бас и на верхнюю ноту:
>G
[--------2-----------
----3-2---2---2-----
------------2---2---
--------------------
--------------------
--3-----------------]
!Остальные аккорды так же, меняется только бас:
!для <А> - открытая пятая, для <Hm> - пятая на втором ладу,
!для <D> - открытая четвертая.
-
> F G
И то, что было, наголо
> Am
Откроется потом
> F
Мой рок-н-ролл
> G Am
Это не цель и даже не средство
Не новое, а заново
Один и об одном
Дорога - мой дом
И для любви это не место
> F G
Припев:Прольются все слова как дождь
> Am
И там, где ты меня не ждешь
> F G Am
Ночные ветры принесут тебе прохладу
> F G
На наших лицах без ответа
> Am C
Лишь только отблески рассвета
> F G Am
Tого, где ты меня не ждешь.
Проигрыш:<Am F G Am F G Am>
[e|-8-7-------8-7------8-7---------------------
B|-----8-10------8-5------8-10--12--13-12-10--
> F G Am F G Am
8-7-------8-7------8-7--------------|
----8-10------8-5------8-10--8--10--|]
А дальше - это главное
Похожий на тебя
В долгом пути
Я заплету волосы лентой
И не способный на покой
Я знак подам тебе рукой
Прощаясь с тобой
Как будто с легендой.
!Припев
Прольются все слова как дождь
И там, где ты меня не ждешь
Ночные ветры принесут тебе прохладу
На наших лицах без ответа
Лишь только отблески рассвета
Tого, где ты меня не ждешь.
>Am F G Am F G Am
[e|-8-7-------8-7------8-7---------------------
B|-----8-10------8-5------8-10--12--13-12-10--
> F G Am F G Am
8-7-------8-10-12-13-10-12--12-10------------|
----8-10--------------------------10--8--10--|]
И то, что было, наголо
Откроется потом
Мой рок-н-ролл
Это не цель и даже не средство
Не новое, а заново
Один и об одном
Дорога - мой дом
И для любви это не место
И для любви это не место
И для любви это не место... и т.д.
-
Аккорды: 1
|---+---+---
|-*-+---+---
|---+-*-+---
|---+---+-*-
|---+---+-*-
|---+---+---
> F7+
> F7+ G Am
(1)И то что было на бело, откроется потом,
> F7+ G Am
Мой рок-н-ролл - это не цель и даже не средство.
Не новое, а заново, один и об одном,
Дорога в мой дом, и для любви это не место.
Припев:Прольются все слова как дождь, и там, где ты меня не ждёшь,
Ночные ветры принесут тебе прохладу.
На наших лицах без ответа, лить только отблески рассвета
Того, где ты меня не ждёшь.
(2)А дальше - это главное, похожий на тебя
В долгом пути я заплету волосы лентой.
И не способный на покой, я знак подом тебе рукой,
Прощаясь с тобой, как будто с легендой.
Припев:Прольются все слова как дождь, и там, где ты меня не ждёшь,
Ночные ветры принесут тебе прохладу.
На наших лицах без ответа, лить только отблески рассвета
Того, где ты меня не ждёшь.
-
!Перебор (играется с акцентом на первую струну)
[-----------------------3----------------
----------------------------------------
----------------------------------------
------3---------------------------------
--------5-------5---5----5-------5---5--
----------0---0---0--------0---0---0----
------------0----------------0----------]
и все, что было набело
[------5---------------5-----------------
----------------------------------------
----------------------------------------
----------------------------------------
--------5-------5---5----5-------5---5--
----------0---0---0--------0---0---0----
------------0----------------0----------]
Откроется потом. Мой рок - н-
[-----------------------3----------------
----------------------------------------
----------------------------------------
------3---------------------------------
--------5-------5---5----5-------5---5--
----------0---0---0--------0---0---0----
------------0----------------0----------]
ролл - это не цель и даже не
[------5---------------5-----------------
----------------------------------------
----------------------------------------
----------------------------------------
--------5-------5---5----5-------5---5--
----------0---0---0--------0---0---0----
------------0----------------0----------]
средство......................
!(и по кругу)
И то, что было набело
Откроется потом
Мой рок н ролл
Это не цель и даже не средство
Не новое, а заново
Один и об одном
Дорога в мой дом
И для любви это не место
Припев:Прольются все слова, как дождь
И там, где ты меня не ждешь
Ночные ветры принесут тебе прохладу
На наших лицах без ответа
Лишь только отблески рассвета того,
Где ты меня не ждешь
А дальше это главное
Похожий на тебя
В долгом пути
Я заплету волосы лентой
И не способный на покой
Я знак подам тебе рукой
Прощаясь с тобой
Как будто с легендой
!Припев
И то, что было набело
Откроется потом
Мой рок н ролл
Это не цель и даже не средство
Не новое, а заново
Один и об одном
Дорога в мой дом
И для любви это не место
-
!Можно играть таким перебором, хотя можно и боем но не громким.
> Am C D Em
1|--------------------------------------------|
2|-----1---------1----------3---------0-------|
3|---2---2-----0---0------2---2-----0---0-----|
4|--2-2-2-2---2-2-2--2---0-0-0-0---2-2-2-2----|
5|-0---------3----------0---------2-----------|
6|--------------------------------------------|
> Am C
(1)И то что было наголо
> D Em
Откроется потом
> С D Em
Мой Rock-n-roll, это не цель, и даже не средство
> Am C
Не новое а заново
> D Em
Один и об одном
> C D Em
Дорога мой дом и для любви это не место
> Am C
Припев:Прольются все слова как дождь
> D Еm
И там где ты меня не ждёшь
> C D Em
Ночные ветры принесут тебе прохла-аду
> Am C
На наших лицах без ответа
> D Em
Лишь только отблески рассвета
> C D Em
Того где ты меня не ждёшь
!(Это что, вот у нас случай случай был, один человек тоже подошёл
!к радиоприёмнику и поймал (Гимн Советского Союза))
!Проигрыш
!(Главное что дальше)
(2)А дальше это главное
Похоже на тебя
В долгом пути, я заплету, Волосы лентой
И не способный на покой
Я знак подам тебе рукой
Прощаясь с тобой, как будто с легендой
!Припев
!Ещё раз Куплет 1-й
! +
Дорога мой дом и для любви это не место } 8 раз
-
!Для начала небольшое примечание к этой версии аккордов.
!Она более предпочтительна чем Фа или До - мажорная
!поскольку удобнее для пения да и сами БИ-2 играют
>G A
И то, что было, набело
>Hm
Откроется потом
> G
Мой рок-н-ролл
> A Hm
Это не цель и даже не средство
Не новое а заново
Один и об одном
Дорога в мой дом
и для любви это не место
>G A
Припев:Прольются все слова как дождь
> Hm
И там, где ты меня не ждешь
> G A Hm
Ночные ветры принесут тебе прохладу
>G A
На наших лицах без ответа
> Hm D
Лишь только отблески рассвета
> G A Hm
Того, где ты меня не ждешь
А дальше, это главное
Похожий на тебя
В долгом пути
Я заплету волосы лентой
И не способный на покой
Я знак подам тебе рукой
Прощаясь с тобой
Как будто с легендой
!Припев
!СМ первый куплет
!Припев
!Перебор играется с ударением на бас и на верхнюю ноту.
-
> G A Hm
[E)------3--------0--------2-----------
H)-----3-3-3----2-2-2----3-3-3--------
G)----4---4-4--2---2-2--4---4-4-------
D)------------------------------------
A)------------0--------2--------------
E)---3--------------------------------]
-
!Лиpичecкoe oтcтyплeниe: мнoгo-мнoгo paз я
!зaглядывaл cюдa в пoиcкax aккopдoв для этo пecни,
!нo нaйти чтo-нибyдь интepecнoe мнe нe пocчacтливилocь,
!пoэтoмy и пpишлocь пoдбиpaть caмoмy...
!Пepeбop игpaeтcя пpимepнo тaк:
[E|--------0---------------0---------------0---------------0---------------------
B|----------0---------------0---------------0---------------0-------------------
G|----2-------2---2---0-------0---0---5-------5---5---5-------5---5-------------
D|------3-------3-------0-------0-------2-------2-------2-------2---------------
A|----------------------------------0---------------0---------------------------
E|--1---------------3-----------------------------------------------------------]
!A вoт и тeкcт:
И тo, чтo былo, нaбeлo oткpoeтcя пoтoм
Мoй poк-н-poлл этo нe цeль и дaжe нe cpeдcтвo
Нe нoвoe a зaнoвo, oдин и oб oднoм
Дopoгa в мoй дoм и для любви этo нe мecтo
Пpипeв:Пpoльютcя вce cлoвa кaк дoждь
И тaм, гдe ты мeня нe ждeшь
Нoчныe вeтpы пpинecyт тeбe пpoxлaдy
Нa нaшиx лицax бeз oтвeтa
Лишь тoлькo oтблecки paccвeтa
Тoгo, гдe ты мeня нe ждeшь
A дaльшe, этo глaвнoe, пoxoжий нa тeбя
В дoлгoм пyти я зaплeтy в вoлocы лeнты
И нe cпocoбный нa пoкoй я знaк пoдaм тeбe pyкoй
Пpoщaяcь c тoбoй, кaк бyдтo c лeгeндoй
!Пpипeв
!Cмoтpи пepвый кyплeт
!Пpипeв
-
1||--------------0-----------|--------------0-----------|
2||--------0-----------0-----|--------0-----------0-----|
3||-----5-----5-----5-----5--|-----5-----5-----5-----5--|
4||--3-----------------------|--------------------------|
5||--------------------------|--------------------------|
6||--------------------------|--3-----------------------|
1||--------------0-----------|--------------0-----------||
2||--------0-----------0-----|--------0-----------0-----||
3||-----5-----5-----5-----5--|-----5-----5-----5-----5--||
4||--------------------------|--------------------------||
5||--0-----------------------|--0-----------------------||
6||--------------------------|--------------------------||
-
!Проигрыш: (как собственно и на протяжении всей песни: )
>F* G* Am*
> F* G* Am*
1|-------0-------------0---------------0--------------0--------|
2|-----1-----1-------3-----3---------0-----0--------0-----0----|
3|---2-----2---2---4-----4---4-----5-----5---5----5-----5---5--|
4|-3---------------------------5/7-----------------------------|
5|---------------5-----------------------------0---------------|
6|-------------------------------------------------------------|
! (это упрощенный вариант перебора)
!еще такое соло:
> F* G* Am*
1|-12~--12~12~12-10-----------
2|------------------8/10-10~--
> F* G* Am*
И то что было намело, откроется потом
> F* G* Am* (e.t.c.)
Мой рок-н-ролл - это не цель и даже не средство
Не новое, а заново, один и об одном
Дорога в мой дом, и для любви - это не место
Прольются все слова как дождь, и там где ты меня не ждешь
Ночные ветры принесут тебе прохладу
На наших лицах без ответа, лишь только отблески рассвета
Того, где ты меня не ждешь
А дальше - это главное, похожий на тебя
В долгом пути, я заплету волосы лентой
И не способный на покой я знак подам тебе рукой,
Прощаясь с тобой как будто с легендой
Прольются все слова как дождь, и там где ты меня не ждешь
Ночные ветры принесут тебе прохладу
На наших лицах без ответа, лишь только отблески рассвета
Того, где ты меня не ждешь
И то что было намело, откроется потом
Мой рок-н-ролл - это не цель и даже не средство
Не новое, а заново, один и об одном
Дорога в мой дом, и для любви - это не место
!аккорды выглядят так:
> F* G* Am*
1|--0----0----0----
2|--1----3----0----
3|--2----4----5----
4|--3----5----7----
5|--3----5----0----
6|--0----0----x----
-
>Asus4 [5 x x 5 0 0]
>Dsus4 [x x 3 5 0 0]
>Gsus4 [3 x x 5 0 0]
Вступление:< Dsus4 Gsus4 Asus4 ( 2 раза)>
[e|----------0---------|---------0----------|--------0----------|
b|--------0----0---0--|-------0---0---0----|------0---0---0----|
g|-----5---------5----|-----5-------5------|----5-------5------|
d|--3-----------------|--------------------|-------------------|
a|--------------------|--------------------|-------------------|
e|--------------------|--3-----------------|--5----------------|]
> Dsus4 Gsus4
И то, что было набело
> Asus4
Откроется потом
> Dsus4
Мой рок-н-ролл
> Gsus4 Asus4
Это не цель и даже не средство
Не новое, а заново
Один и об одном
Дорога в мой дом
И для любви это не место
> Dsus4 Gsus4
Припев:Прольются все слова, как дождь
> Asus4
И там, где ты меня не ждешь
> Dsus4 Gsus4 Asus4
Ночные ветры принесут тебе прохладу
> Dsus4 Gsus4
На наших лицах без ответа
> Asus4
Лишь только отблески рассвета
> Dsus4 Gsus4 Asus4
Того, где ты меня не ждешь
!(те же аккорды)
А дальше- это главное
Похожий на тебя
В долгом пути
Я заплету волосы лентой
И не способный на покой
Я знак подам тебе рукой
Прощаясь с тобой
Как будто с легендой
!Припев
!(опять играется первый куплет)
И то, что было набело
Откроется потом
Мой рок-н-ролл
Это не цель и даже не средство
Не новое, а заново
Один и об одном
Дорога в мой дом
И для любви это не место
-
!Ну вот рифф1 (он же и последний):
!Играется аккорд <С>, потом он переносится на 3-й лад,
!потом <Am> два раза, и все это с
!чередованием указательного пальца.
[E|---------0--------------------------0--------------------------0---------------------0---------|
B|----1-------0-----1----------3--------0-----3-----------1---------0-----1--------1-----0---1---|
G|------0--------0-----0---------0---------0-----0-----------2---------2-----2-------2-----2---2-|
D|-----------------------------------------------------------------------------------------------|
A|-3-------------------------5--------------------------0------------------------0---------------|
E|-----------------------------------------------------------------------------------------------|]
!Между припевом и куплетом можно вставить
[E-----0----------
H--------0------
G------------0--
D---------------
A---------------
E---------------]
И то, что было набело
Откроется потом
Мой рок-н-ролл
Это не цель и даже не средство
Не новое, а заново
Один и об одном
Дорога в мой дом
И для любви это не место
Припев:Прольются все слова, как дождь
И там, где ты меня не ждешь
Ночные ветры принесут тебе прохладу
На наших лицах без ответа
Лишь только отблески рассвета
Того, где ты меня не ждешь
А дальше- это главное
Похожий на тебя
В долгом пути
Я заплету волосы лентой
И не способный на покой
Я знак подам тебе рукой
Прощаясь с тобой
Как будто с легендой
!Припев.
И то, что было набело
Откроется потом
Мой рок-н-ролл
Это не цель и даже не средство
Не новое, а заново
Один и об одном
Дорога в мой дом
И для любви это не место
-
Intro:
!Gtr1
|---------------------------------------------------|
|----------0------1---------------------------------|
|--2-----------------------2-----0------------------|
|-------------------------------------2-------------|
|-----------------0-------------------0-------------|
|--1-------3---------------1-----3------------------|
!Gtr2(Solo)
|---8---10--12---10-12--10-12---17--15-----15-------|
|--------------------------------------17-----------|
|---------------------------------------------------|
|---------------------------------------------------|
|---------------------------------------------------|
|---------------------------------------------------|
|-12--10--12---12-10-----8--7-8-7---0--3--5--5-3-0-1--3--5-|
|----------------------------------------------------------|
|----------------------------------------------------------|
|----------------------------------------------------------|
|----------------------------------------------------------|
|----------------------------------------------------------|
!Solo2(coлячoк пocлe 2 кyплeтa)
> F G Am F G Am
|--7--6-------------7--6---------7--6--------6--7-7-6----------|
|-------7--9-------------7--4---------7--9------------9--------|
|--------------------------------------------------------------|
|--------------------------------------------------------------|
|--------------------------------------------------------------|
|--------------------------------------------------------------|
-
!Перебор:
!<F>:
[e||---------1-------|
b||-----1-----1---1-|
g||---2---2-----2---|
d||-----------------|
a||-3---------------|
e||-----------------|]
!<Am>:
[e||---------0-------|
b||-----1-----1---1-|
g||---2---2-----2---|
d||-----------------|
a||-0---------------|
e||-----------------|]
!<G>:
[e||---------3-------|
b||-----0-----0---0-|
g||---0---0-----0---|
d||-----------------|
a||-----------------|
e||-3---------------|]
> F G
И то, что было набело
> Am
Откроется потом
> F
Мой рок-н-ролл
> G Am
Это не цель и даже не средство
Не новое, а заново
Один и об одном
Дорога в мой дом
И для любви это не место
> F G
Припев:Прольются все слова, как дождь
> Am
И там, где ты меня не ждёшь
> F G Am
Ночные ветры принесут тебе прохладу
> F G
На наших лицах без ответа
> Am
Лишь только отблески рассвета
> F G Am
Того, где ты меня не ждешь
А дальше - это главное
Похожий на тебя
В долгом пути
Я заплету волосы лентой
И не способный на покой
Я знак подам тебе рукой
Прощаясь с тобой
Как будто с легендой
!Припев
И то, что было набело
Откроется потом
Мой рок-н-ролл
Это не цель и даже не средство
Не новое, а заново
Один и об одном
Дорога в мой дом
И для любви это не место
Документ
Категория
Ноты, аккорды
Просмотров
19
Размер файла
20 Кб
Теги
ролл, би2, мой, рок
1/--страниц
Пожаловаться на содержимое документа