close

Вход

Забыли?

вход по аккаунту

?

Башлачёв Александр - Посошок

код для вставкиСкачать
(1984)
Посошок
!(А. Башлачев)
> Em C Am C
Эх, налей посошок, да зашей мой мешок -
> Am C Am7 Em
На строку - по стежку, а на слова - по два шва.
> Em C Am C
И пусть сырая метель вьет свою канитель
> Am C Am7 Em
И пеньковую пряжу плетет в кружева.
Отпевайте немых! А я уж сам отпою.
А ты меня не щади - срежь ударом копья.
Но гляди - на груди повело полынью.
Расцарапав края, бьется в ране ладья.
И запел алый ключ, закипел, забурлил,
Завертело ладью на веселом ручье.
А я еще посолил, рюмкой водки долил,
Размешал и поплыл в преисподнем белье.
Так плесни посошок, да затяни ремешок
Богу, сыну и духу весло в колесо.
И пусть метель мягко стелет сырую постель
И земля грязным пухом облепит лицо.
Перевязан в венки мелкий лес вдоль реки.
Покрути языком - оторвут с головой.
У последней заставы мелькнут огоньки,
И дорогу штыком преградит часовой.
Отпусти мне грехи! Я не помню молитв.
Но если хочешь - стихами грехи замолю,
Но объясни - я люблю оттого, что болит,
Или это болит оттого, что люблю?
Та страна, что спала, на подъём тяжела,
Но кое-как запрягла, и пошла на рысях!
Не беда, что пока не нашлось мужика.
Одинокая баба всегда на сносях.
И наша правда проста, но ей не хватит креста
И соломенной веры в "спаси-сохрани".
Ведь святых на Руси - только знай выноси.
В этом высшая мера. Скоси-схорони.
Так что, ежели что, ты пропускай, не дури!
Да постой-ка, сдается и ты мне знаком...
Часовой всех времен улыбнется: - Смотри!
И подымет мне веки горячим штыком.
Так зашивай мой мешок, да наливай посошок!
На строку - по глотку, а на слова - и все два.
И пусть сырая метель все кроит белый шелк,
Вьёт свою канитель, да плетет кружева.
-
Вступление:[------- -------- ------- -------- ------- -2-2-3-2-3-2--- -----0-----------0-----
----1-- ----1--- ----1-- ----1--- ---0--- -1-1-1-1-1-1--- ----0-----------0-0----
---0--- ---2---- ---0--- ---2---- --0-0-- -2-2-2-2-2-2--- ---0------0----0-------
--2---- --2----- --2---- --2----- ------- --------------- --2------2----2--------
-3----- -0---0-- -3----- -0------ ------- --------------- -----------------------
------- -------- ------- -------- -0----- --------------- -0------0----0---------]
> C Am C Am Em Am7 Em
эх, нал-ей посош-ок да за-шей мой ме-шок на стро-
[-------------0--- -----0--- ------------ -------0-
-------------0--- ----1---- -----1------ ------1--
-0----------0-0--- ---0----- ---2-------- -----0--
----2------------- --------- ------------ --------
----------------- -3------- -0---------- -0-3-----
---------0------- --------- ------------ ---------]
> Em C Am C
ку по стеж-ку, а на сло-ва по два шва. И пусть сы-
[---------- -----0------ -----0--- ----0---
----1----- -----0------ -----1--- ---0----
---2-2---- ---0-0------ ---2----- --0-----
---------- ------------ --------- --------
---------- ------------ --------- --------
-0-------- -0---------- -0------- -0------]
> Am Em Am Em
рая ме - тель вьет сво-ю канитель и пень-
[-----0-- ----0--- ----------- ---------
----0--- ---1---- -------1--- ---1-----
---0---- --0----- ------2---- --0------
-------- -------- ----------- ---------
-------- -3------ -----0--0-- -3-------
-0------ -------- ----------- ---------]
> Em C Am C
ковую пряжу плетет в кружева Отпе-вайте... и т.д.
[------- -------- ---2------ -----0-0-------- -----0---0---- ----0----0-- ----0-------
---1--- ---0---- ---1------ ----0-------0--- ----1----1---- ---1----1--- ---0--------
--2-2-- --0-0--- ---2------ ---0-------0---- ---0----0-0--- --2----2---- --0---------
------- -------- ---2------ ---------------- -------2------ ------2----- ------------
------- -------- ---------- ---------------- -3------------ -0---------- ------------
-0----- -0------ ---------- --0-------0------ -------------- ------------ -0---------]
> Am Em Am7 Em C Am Em
!Примерно так.
!Там где тянется, например "так плесни посошок, да затяни ремешок" С выглядит вот так:
Так плесни посошо - ок, да затяни ремешо - ок
[----0---0----0-0- ----0----0--- ----0---0----0-0-
---1---1----1--1- ---0---0-0--- ---1---1----1--1-
--0---0---0-0--0- --0---0------ --0---0---0-0--0-
----------------- ------------- -----------------
-3---3---3------- ------------- -3---3---3-------
----------------- -0---0------- -----------------]
!ну и так далее.
!Если где лажанул извини...
!P.S. У Башлачева этого нет, но я советую хотя бы изредка
!вместе с последней нотой дергать первую струну (как в этой песне в <Am7>).
!То же кое где можно делать и на басе. Не совсем оригинально, но
!по-моему так лучше звучит.
Документ
Категория
Ноты, аккорды
Просмотров
12
Размер файла
5 Кб
Теги
посошок, башлачёв, александр
1/--страниц
Пожаловаться на содержимое документа