close

Вход

Забыли?

вход по аккаунту

?

Бетховен Людвиг ван - Ode To Joy

код для вставкиСкачать
Ode To Joy
|--------------------------------------------------------------------|
|--------------------------------------------------------------------|
|----0---0---0---0---0---0---0---0-----0---0---0---0---0---0---0---0-|
|------2-------2-------3-------3---------2-------2-------3-------3---|
|--3-------3-------3-------3---------3-------3-------3-------3-------|
|--------------------------------------------------------------------|
|--0---0---1---3---3---1---0---------------------0---0---------------|
|------------------------------3-----1---1---3-------------3-3-------|
|----0---0---0---0---0---0---0---0-----0---0---0---0---0-------0---0-|
|------2-------2-------0-------0---------2-------2-------0-------0---|
|--3-------3-------2-------2---------0-------0-----------------------|
|----------------------------------------------------3-------3-------|
|--0---0---1---3---3---1---0---------------------0-------------------|
|------------------------------3-----1---1---3-------3-----1-1-------|
|----0---0---0---0---0---0---0---0-----0---0---0---0---0-------0---0-|
|------2-------2-------0-------0---------2-------2-------0-------2---|
|--3-------3-------2-------2---------0-------0---------------3-------|
|----------------------------------------------------3---------------|
|-----------0------------0-1-0--------------0-1-0--------------------|
|--3---3--------1---3------------1-----3-------------3----1--3-------|
|----0---0----0---0---0--------0---0-----0---------1---1--2--2--0----|
|------0--------2----------------2------------------------2--0--0----|
|--2--------3-------2--------3---------2------------------0----------|
|-----------------------------------------------0------------2--3----|
|--0---0---1---3----3---1----0----------------------0----------------|
|--------------------------------3-----1---1---3--------3-----1-1----|
|----0---0---0----0---0---0----0---0-----0---0---0----0---0-----0----|
|------2-------2--------0--------0---------2--------2-------0---2----|
|--3----------------2--------2---------0-------0----------------3----|
|----------3--------------------------------------------3------------|
Документ
Категория
Ноты, аккорды
Просмотров
29
Размер файла
2 Кб
Теги
ode, людвиг, joy, ван, бетховен
1/--страниц
Пожаловаться на содержимое документа