close

Вход

Забыли?

вход по аккаунту

?

Бетховен Людвиг ван - Девятая симфония (Ода радости)

код для вставкиСкачать
Девятая симфония (Ода радости)
[e|--------------------------------|------------------------------------|
B|--------------------------------|------------------------------------|
G|-----0-------0-------0-------0--|-----0-------0-------0-------0------|
D|---------2---------------2------|---------3---------------3----------|
A|-3---------------3--------------|-3---------------3------------------|
E|--------------------------------|------------------------------------|
p i p i p i p i
e|--------------------------------|------------------------------------|
B|--------------------------------|------------------------------------|
G|-----0-------0-------0-------0--|-----0-------0-------0-------0------|
D|---------2---------------2------|---------3---------------3----------|
A|-3---------------3--------------|-3---------------3------------------|
E|--------------------------------|------------------------------------|
e|-0-------0-------1-------3------|-3-------1-------0------------------|
B|--------------------------------|-------------------------3----------|
G|-----0-------0-------0-------0--|-----0-------0-------0-------0------|
D|---------2---------------2------|---------0---------------0----------|
A|-3---------------3--------------|-2---------------2------------------|
E|--------------------------------|------------------------------------|
e|-------------------------0------|-0----------------------------------|
B|-1-------1-------3--------------|-------------3---3------------------|
G|-----0-------0-------0-------0--|-----0---------------0-------0------|
D|---------2---------------2------|---------0---------------0----------|
A|-0---------------0--------------|------------------------------------|
E|--------------------------------|-3---------------3------------------|
e|-0-------0-------1-------3------|-3-------1-------0------------------|
B|--------------------------------|-------------------------3----------|
G|-----0-------0-------0-------0--|-----0-------0-------0-------0------|
D|---------2---------------2------|---------0---------------0----------|
A|-3---------------3--------------|-2---------------2------------------|
E|--------------------------------|------------------------------------|
e|-------------------------0------|------------------------------------|
B|-1-------1-------3--------------|-3-----------1---1------------------|
G|-----0-------0-------0-------0--|-----0---------------0-------0------|
D|---------2---------------2------|---------0---------------2----------|
A|-0---------------0--------------|-----------------3------------------|
E|--------------------------------|-3----------------------------------|
e|-----------------0--------------|---------0^--1---0------------------|
B|-3-------3---------------1------|-3-----------------------1----------|
G|-----0-------0-------0-------0--|-----0---------------0-------0------|
D|---------0---------------2------|-------------------------2----------|
A|-2---------------3--------------|-2---------------3------------------|
E|--------------------------------|------------------------------------|
e|---------0^--1---0--------------|------------------------------------|
B|-3-----------------------3------|-1-------2--------------------------|
G|-----0---------------1-------1--|-2-------2-------0------------------|
D|--------------------------------|-2-------0-------0------------------|
A|-2------------------------------|-0----------------------------------|
E|-----------------0--------------|---------2-------3------------------|
e|-0-------0-------1-------3------|-3-------1-------0------------------|
B|--------------------------------|-------------------------3----------|
G|-----0-------0-------0-------0--|-----0-------0-------0-------0------|
D|---------2---------------2------|---------0---------------0----------|
A|-3---------------3--------------|-2---------------2------------------|
E|--------------------------------|------------------------------------|
e|-------------------------0------|------------------------------------|
B|-1-------1-------3--------------|-3-----------1---1------------------|
G|-----0-------0-------0-------0--|-----0-----------0------------------|
D|---------2---------------2------|---------0-------2------------------|
A|-0---------------0--------------|-----------------3------------------|
E|--------------------------------|-3----------------------------------|]
-
[E||---0-----0-----1-----3-----|--3-----1-----0-----------|
B||---------------------------|--------------------3-----|
G||*-----0-----0-----0-----0--|-----0-----0-----0-----0--|
D||*--------------0-----------|--------------------------|
A||---3-----------------------|--2-----------------------|
E||---------------------------|--------------3-----------|
3 1 4 4 1 3 4
2
E|--------------------0-----|--0--------------------|--0-----0-----1-----3-----|
B|--1-----1-----3-----------|-----------3--3--------|--------------------------|
G|-----0-----0-----0-----0--|-----0--------0--------|-----0-----0-----0-----0--|
D|--------------------------|--------2-----0--------|--------------0-----------|
A|--3-----------2-----------|--3--------------------|--3-----------------------|
E|--------------------------|--------------3--------|--------------------------|
1 4 3 2 4
3 2 3
E|--3-----1-----0-----------|--------------------0-----|-----------------------|
B|--------------------3-----|--1-----1-----3-----------|--3--------1--1--------|
G|-----0-----0-----0-----0--|-----------------------0--|-----0--------0--------|
D|--------------------------|-----2-----2-----0--------|--------------2--------|
A|--2-----------------------|--0-----------2-----------|--2-----------3--------|
E|--------------3-----------|--------------------------|--------3--------------|
E|------------0----------|-------0--1--0----------|-------0--1--0---------|
B|--3----3----------1----|--3----------1-----1----|--3----------0----3----|
G|----0----0-----0--0----|----0--0--2--------0----|-------0--2-------1----|
D|-----------------------|-------------2p-0--2----|-----------------------|
A|------------------3----|-------------------3----|-----------------------|
E|--3----1----0----------|--3---------------------|--3----------0----0----|
4
1
E|-----------------0----|-------0----1----3----|--3----1----0---------|
B|--1----3--------------|-------1---------0----|------------0----3----|
G|--2----2----0---------|-------0----2---------|--0---------0---------|
D|-------0----0---------|------------0---------|----------------------|
A|--0-------------------|--3-------------------|--2-------------------|
E|-------2----3---------|----------------------|------------3---------|
1 4 3
2 2
1
E|-----------------0----|------------------------||
B|--1----1----3----1----|--3--------1--1---------||
G|--2----2----0---------|--0-----------0--------*||
D|--2-------------------|-----0--------2--------*||
A|--0---------2----3----|--2-----------3---------||
E|----------------------|--------3---------------||]
-
[E|-0--0---1--3-|-3--1--0----|----------0-|-0--------|-0--0---1--3-|-3--1--0----|
B|-------------|-0--------3-|-1--1--3----|------3-3-|-------------|-0--------3-|
G|-0-----------|------------|----------0-|-0--------|-0-----------|------------|
D|--------0--2-|-2--0-------|-2--2--3----|--------3-|--------0--2-|-2--0-------|
A|-3--3--------|-------3--2-|-3----------|----------|-3--3--------|-------3--2-|
E|-------------|------------|------------|-3--------|-------------|------------|
3 3 1 4 4 1 3 4 1 1 4 2 4 4 3 3 1 4 4 1 3 4
2 2 2 2 2 3 3 2 2 2
3
E-|----------0-|----------||--------0----|----0-1-0----|----0-1-0----|----------0-|
B-|-1--1--3----|-3----1-1-||--3--3-----1-|-3---------1-|-3---------3-|-1--3-----1-|
G-|----------0-|----------||*-0-----0----|-0------0----|-0------1----|-2--2--0----|
D-|-2--2--3----|-3------2-||*------------|-------------|-------------|-------0----|
A-|-3----------|--------3-||--2-----3----|-2------3----|-2------2----|-0----------|
E-|------------|-3--------||-------------|-------------|-------------|----2--3----|
1 4 4 1 1 4 4 3 1 4 1 3 1 4 1 1 4 1 4 3 1
2 3 3 2 2 2 2 2 2 3
3 2 3 2
1°---------| 2°--------|
E-|-0--0--1--3-|-3--1--0----|----------0-|-----------|| |----------|
B-|-1-----3----|-0-----0--3-|-1--1--3----|-3----1-1--|| |-3----1-1-|
G-|------------|------------|-0--------0-|----------*|| |----------|
D-|------------|------------|-2-----3----|-3------2-*|| |-3------2-|
A-|-3-----3----|------------|------------|--------3--|| |--------3-|
E-|------------|-3-----3----|------------|-3---------|| |-3--------|
1 1 4 1 3 4 1 2 4 4 1
3 4 3 2 3 3 2
3 2 3]
!Обозначения:
[ cx------/
E-||------------|| |-------|---------|----(7----|-------|---------|---------|
B-||------------|| |-------|---------|----)7----|-------|---------|---------|
G-||*-повторить*|| |--5/7--|--12p10--|----(5----|--1h4--|--{12}---|---------|
D-||*----------*|| |-------|---------|----)6----|-------|---------|---------|
A-||------------|| |-------|---------|----(6----|-------|---------|---------|
E-||------------|| |-------|---------|----)7----|-------|---------|---------|]
! слайд пулл арпеджато Хаммер Флажолет Баррэ на X
Документ
Категория
Ноты, аккорды
Просмотров
16
Размер файла
10 Кб
Теги
ода, радость, девятая, симфония, людвиг, ван, бетховен
1/--страниц
Пожаловаться на содержимое документа