close

Вход

Забыли?

вход по аккаунту

?

Бетховен Людвиг ван - Немецкий танец

код для вставкиСкачать
Немецкий танец (аллегретто в A из "6 немецких танцев")
!Тональность: A Major
!Размер: 3/4
!Темп: Allegretto
[ D.C.
E-||-----|-------|---0-2-0---|-------|-----0-----|-----------|------------|
B-||-----|-2-2-2-|-4-------4-|-0-0-0-|-2-3---3-2-|---0-2-0---|-0-2-3--2-0-|
G-||*----|-------|-----------|-------|-----------|-2-------2-|------------|
D-||*-2.-|-------|-----------|-------|-----------|-2
0
0---4----4-|
A-||-----|-0-0-0-|-2---------|-------|-0---------|-----0---0-|------------|
E-||-----|-------|-----------|-4-4-4-|-----------|-2---------|------------|
2 3 4 3 3 2 3 3 3 3 1 2 1 3
2 2 3
Конец. c2--/ c2--/ c2 c2--/ c2--/
E-|---------------|| |----|-------------|-------------|-------------|
B-|-----0---------|| |----|-2---0---2---|-3-0---------|-2---0---2---|
G-|-1-2---2-1-2--*|| |----|-------------|-----1---1---|-------------|
D-|-----0--------*|| |-2.-|---2---2---2-|-------2---2-|---2---2---2-|
A-|---------2-0---|| |----|-0-------0---|-2-----------|-0-------0---|
E-|-0-------------|| |----|-----4-------|-----0-------|-----4-------|
1 2 2 1 3 3 1 4 1 2 3 1
2
c2 c2--/ c2-----------/
E-|--------------|-0-------0---|-2---4---5---|---0-----------|
B-|-3-0----------|-----3-------|-------------|-2-----2-0-----|
G-|------1---1---|---2---2---2-|---2---2---2-|-----2-----1-2-| D.C
D-|--------2---2-|-------------|-0---2---4---|-2---2---------|
A-|-2------------|-4---2---4---|-------------|-------------0-|
E-|------0-------|-------------|-------------|---------0-----|
4 1 2 3 1 2 3 1 4 4 3 2 3 1 2
3 1 1]
Документ
Категория
Ноты, аккорды
Просмотров
147
Размер файла
2 Кб
Теги
танец, людвиг, немецкий, ван, бетховен
1/--страниц
Пожаловаться на содержимое документа