close

Вход

Забыли?

вход по аккаунту

?

Бетховен Людвиг ван - Тема из 6-ти Вариаций в G

код для вставкиСкачать
Тема из "6-ти Вариаций в G"
!Обозначения:
!. Четверть
!; Шестнадцатая
!~ Пауза
!Все ноты, кроме указанных, являются восьмушками.
|-----|---------------|---------------|--------0---0--|
|--3--|--0-0-3-----1--|----0-3-0---3--|--3------------|
|-----|--0---4-2---2--|--0---0---0----|------0-----2--|
|-----|--------0-4----|------------0--|----0-----2----|
|-----|---------------|---------------|--2-----3------|
|-----|---------------|---------------|---------------|
|---------------|---------------|--------0---0--|---------------|
|---------------|--0-0-3-1-0-1--|--3-0-3--------|------0-----1--|
|--2---2-----2--|--0---4-0-2----|--0---------2--|--0-0-0-2---2--|
|--0-4---0-4----|---------------|----------2----|--0-----0-4----|
|---------------|---------------|--------3------|---------------|
|---------------|---------------|---------------|---------------|
! . ; ;
|---------------|--------0------|-----------------|---------------|
|----0-3---3----|----0-3---0-3--|--1---1-1-----1--|------1-3---1--|
|--0-----0------|--1---1--------|----2-------2----|----2-----2----|
|---------------|--2-----2------|--2-------2------|--4---4-0------|
|---------------|---------------|-----------------|--5------------|
|---------------|---------------|-----------------|---------------|
! ; ; . .
|-----------------|---------------|---------|---------------|
|--0---0-0-----0--|--2---2-2-0-2--|--3-~-3--|--1---1-0---0--|
|----0-------0-0--|----0-2---0-2--|--2------|------2---0----|
|--0-------0------|--2-----2------|--4------|--0-4---0------|
|-----------------|---------------|--5------|---------------|
|-----------------|---------------|---------|---------------|
|---------------|---------------|--------0---0--|---------------|
|---------------|--0-0-3-1-0-1--|--3-0-3--------|------0-----1--|
|--2---2-2---2--|--0---4-0-2----|--0---------2--|--0-0-0-2---2--|
|--0-4---0-4----|---------------|----------2----|--0-----0-4----|
|---------------|---------------|--------3------|---------------|
|---------------|---------------|---------------|---------------|
! .
|-----------|
|----0-3----|
|--0-----0--|
|-----------|
|-----------|
|-----------|
Документ
Категория
Ноты, аккорды
Просмотров
12
Размер файла
2 Кб
Теги
тема, людвиг, вариаций, ван, бетховен
1/--страниц
Пожаловаться на содержимое документа