close

Вход

Забыли?

вход по аккаунту

?

Би2 - И корабль плывёт

код для вставкиСкачать
И корабль плывёт
Figure/coda:<Hm F#> } 2 раза
>Em D F#
> Hm F#
Сколько звезд на погоны
> Hm F#
Добыли в боях,
> Em D
На пустых полигонах,
> F#
В неведомых снах
Дайте небо под крылья
Подстреленных птиц,
Журавлиному клину
Скорую помощь...
> G
Припев:Отпустите синицу
> A
На верную смерть
> F# Hm
Пусть ее приласкает свобода
> G
И корабль плывет
> A
И сквозь колотый лед
> F# G F#
Я смотрю в эту черную воду
!Figure
Никого не зову,
Не жалею, не плачу
У вас наяву
У меня наудачу
И луна, как стекло,
Не любила, не грела,
Никого не ждала,
Ничего не хотела
!Припев
!Coda
-
Аккорды:<Cm G Cm G Fm D# G>
В припеве:<G# A# G Cm G# A# G G# G>
Вступление:[e|-------------------------------------------------------------|
b|-------------------------------------------------------------|
g|------8-10----------------------8-8-10-----------------------|
d|-8-10--------------8-8-8-10-10----------------8-8-8-10-10----|
a|-----------10-10----------------------10-10------------------|
e|-------------------------------------------------------------|
b|-------------------------------------------------------------|
g|-8-8-10-----------------7-7-10-10~---------------------------|
d|--------------8-8-8-9-9--------------------------------------|
a|--------10-10------------------------------------------------|
Соло:e|-----11-13-15----------------------------------8----8-10-15--|
b|-13------------8-9-8---------------------9----9---9----------|
g|----------------------8--------------------10----------------|
d|------------------------10-10-10-10-9--9---------------------|
a|-------------------------------------10----------------------|
e|-----------------------------------------------6-8---8-11-10-|
b|-------------------9-8---------------------8-9-----9---------|
g|---------8-10-8-10---------------8-10---10-------------------|
d|----8-10-------------------8-10-------8----------------------|
a|-10-------------------8-10-----------------------------------|
e|-15-16-15-16-15-16-15-16----6-8------------------------------|]
Документ
Категория
Ноты, аккорды
Просмотров
11
Размер файла
2 Кб
Теги
би2, корабли, плывёт
1/--страниц
Пожаловаться на содержимое документа