close

Вход

Забыли?

вход по аккаунту

?

Би2 - Последний герой

код для вставкиСкачать
Последний герой
!Обзываем следующие риффы так:
riff01:[e|-----5-5--------5-5----------5-5-------5-----------|
B|-3-3-------4-4--------5-5------------3----3--------|
G|---------------------------------------------------|
D|---------------------------------------------------|
A|---------------------------------------------------|
E|---------------------------------------------------|
riff02:e|--------13-13---------13-13---------13-13-----13----------|
B|-11-11---------12-12---------13-13---------14-----14------|
G|----------------------------------------------------------|
D|----------------------------------------------------------|
A|----------------------------------------------------------|
E|----------------------------------------------------------|
riff03:e|-----2-2-----2-2------2-2-----2----------|
B|-0-0-----1-1-----2-2--------0---0--------|
G|-----------------------------------------|
D|-----------------------------------------|
A|-----------------------------------------|
E|-----------------------------------------|
riff04:e|-----10-10------10-10--------10-10-----10----------|
B|-8-8-------9-9--------10-10----------8----0--------|
G|---------------------------------------------------|
D|---------------------------------------------------|
A|---------------------------------------------------|
E|---------------------------------------------------|]
Intro:riff01
>riff01
Я больше не играю со своей душой:
>riff02
Какая есть, кому-нибудь сгодится.
>riff03
Намедни, золото и твой герой -
>riff04
Последний кем бы ты могла гордиться
>Gm(3)
Припев:Остаться в живых!
Отчайный псих?
>Fm(1)
Ни свой, ни чужой -
>Gm(3)
Последний герой. :)
Проигрыш:<Gm(3)>
!riff01 + <Am(5)>
Всё то немногое - на чётное не ставь,
!riff02 + <Fm(8)>
Когда любовь и слёзы не дороже хлеба.
!riff03 + <Gm(3)>
И, кажется, что до земли добраться вплавь
!riff04 + <D#m(6)>
Возможно тем кто по воде уходит в небо
!Припев,
Проигрыш:<Gm(3)>
!Припев...
Проигрыш:<Gm(3)>
-
Intro:[e|-------0--0--------0--0--------0--0-------------|
B|------------------------------------------------|
G|------------------------------------------------|
D|------------------------------------------------|
A|------------------------------------------------|
E|-0--0--------2--2--------3--3-----------3--5--3-|]
> Em Em/F# Em/G Em Em/F# Em/G
Я больше не играю со своей душой
> Am Am/B Am/C Am Am/B Am/C
Какая есть кому-нибудь сгодится
> Em Em/F# Em/G Em Em/F# Em/G
Но медь - не золото и твой герой
> Am Am/B Am/C Am Am/B Am/C
Последний, кем бы ты могла гордиться
<Em Emmaj7 Em7 Emmaj7> = [022040]
Chorus:Остаться в живых <Em7> = [022030]
<Em6 Em Emmaj7 Em7 Em6> = [022020]
Отчаянный псих
<Em6 Am Ammaj7 Am7 Ammaj7> = [x02204]
Не свой, не чужой <Am7> = [x02203]
<Am6 Am Ammaj7 Am7 Am6 Am6> = [x02202]
Последний герой
Bridge:[D|-2--2-----2-----2--3-----2--2-----2-----2--3--|
A|-2--2-----2-----2--3-----2--2-----2-----2--3--| } x2
E|-0--0-----0-----0--1-----0--0-----0-----0--1--|]
>Em Em/F# Em/G Em Em/F# Em/G
Все то немного - е на четное не ставь
> Am Am/B Am/C Am Am/B Am/C
Когда любовь и слезы не дороже хлеба
> Em Em/F# Em/G Em Em/F# Em/G
И кажется, что до земли добраться вплавь
> Am Am/B Am/C Am Am/B Am/C
Возможно тем, кто по воде уходит в небо
!Chorus
!Bridge } x4
|<Am>|<Am/B>|<Am/C>|<Asus4>| } x2
!Chorus } x2
!Bridge } x2
Документ
Категория
Ноты, аккорды
Просмотров
11
Размер файла
4 Кб
Теги
би2, последний, герои
1/--страниц
Пожаловаться на содержимое документа