close

Вход

Забыли?

вход по аккаунту

?

Би2 - С тобой

код для вставкиСкачать
С тобой
> Em
Мы вышли из дома
Когда рассвело
И ты рассказала
Как мне повезло
> Am
С тобой
С тобой
> Em
На улице стоит
Прекрасная погода
И было все равно
Какое время года
> Am
С тобой
С тобой
>H A Em
Припев:Я и ты просто прекрасно
>H A Em
Ты и я тоже ничего
Ты просто находка
Таких поискать
И каждый четв ртый
Захочет гулять
С тобой
С тобой
И это не важно
Куда нам идти
Походим побродим
Часов до шести
С тобой
С тобой
!Припев
Пусть пусто в карманах
И что-то не так
Пусть утро туманно
Но это пустяк
С тобой
С тобой
Мы вышли из дома
Когда рассвело
И ты рассказала
Как мне повезло
С тобой
С тобой
Бас:<Em>
3|-------0-0----0-0-
4|---2-2------------ } 4 раза
5|----------2-2-----
>Am
2|-----1-1----1-1-
3|--2-2----------- } 2 раза
4|--------2-2-----
-
>Em
Мы вышли из дома
Когда рассвело
И ты рассказала
Как мне повезло
> Am
С тобой
>Em
С тобой
> Em
На улице стоит
Прекрасная погода
И было все равно
Какое время года
> Am
С тобой
>Em
С тобой
>H A Em
Припев:Я и ты просто прекраснo
>H A Em
Ты и я тоже ничего
Ты просто находка
Таких поискать
И каждый четвертый
Захочет гулять
С тобой
С тобой
И это не важно
Куда нам идти
Побродим походим
Часов до шести
С тобой
С тобой
!Припев
Пусть пусто в карманах
И что-то не так
Пусть утро туманно
Но это пустяк
С тобой
С тобой
Мы вышли из дома
Когда рассвело
И ты рассказала
Как мне повезло
С тобой
С тобой
!Припев
!Проигрыш на скрипке (в ранней версии):
> Em Am Em
[1 --7-5-3--3-3-2-0-2-3--3---3-5-3-2-0-3---------------
2 ------------------0---------------1----1-3-1-0--0---
3 -----------------------------------------------2----
4 --------------------------------------------------2-]
!Бас:
> Em Am
[3 -------0-0-----0-0- 2 ------1-1----1-1-
4 ---2-2------------- - 4р. 3 --2-2------------ 2р.
5 ----------2-2------ 4 --------2-2------]
Документ
Категория
Ноты, аккорды
Просмотров
10
Размер файла
2 Кб
Теги
би2
1/--страниц
Пожаловаться на содержимое документа