close

Вход

Забыли?

вход по аккаунту

?

Брамс Иоганнес - Вальс в Ab (Колыбельная) (ор. 39 №15)

код для вставкиСкачать
Вальс в Ab (Колыбельная) (ор. 39 №15)
![|--] = 1/8 [|] = 1/4 [|.] = 1/4 с точкой [||] = 1/2 [||.] = 1/2 с точкой
!Размер: 3/4
!Moderato
[ |. | |--|--| |. | |--|--| | | | |. | |--|--|
||-------------------|-------------------|-----------------|-------------------|
||--0-------------0--|--0-------------0--|--1----0---------|--0-------------3--|
||*---------0--0-----|----------0--0-----|------------2----|----------0--0-----|
||*------0-----------|-------0-----------|--2----0---------|-------0-----------|
||-------2-----------|-------2-----------|------------3----|-------2-----------|
||--3----------------|--3----------------|--3--------------|--3----------------|
| | | | ||. | |
[{]1---------------
|. |--|--| |. |--|--| |--| | | ||.
|--0----------------|--0----------------|--2--0-----------|------------------||
|----------0--0--3--|----------0--0--3--|--------3----2---|---3--------------||
|--0----------------|--0----------------|--0-----4----3---|---4-------------*||
|-------------------|-------------------|--------4----4---|---4-------------*||
|-------2-----------|-------2-----------|-----------------|---2--------------||
|--0----------------|--0----------------|-----------------|------------------||
| | | | | | | ||.
[{]2-----------------
|. |--|--| |. |--|--| |. |--|--| |. |--|--|
|-------------------|-------------------|-------------------|--3-------------3-|
|--3-------------3--|--3-------------3--|--3-------0--0--3--|----------3--3----|
|----------4--4-----|----------2--2-----|--0----------------|-------0----------|
|-------4-----------|-------0-----------|-------4-----------|-------3----------|
|--2----------------|--0----------------|-------------------|--2---------------|
|-------------------|-------------------|--3----------------|------------------|
| | | | | | | |
| | |--|--| | | |--|--| |--| | | | |--|--|
|--3----------0--3--|--5-------0--0--3--|--3--2--0---------||-------------------|
|----------3--------|-------2-----------|--1-----1----3----||--0-------------0--|
|-------0-----------|-------0-----------|--0-----0----5----||*---------0--0-----|
|-------2-----------|-------------------|-------------4----||*------0-----------|
|--3----------------|--0----------------|------------------||-------2-----------|
|-------------------|-------------------|------------------||--3----------------|
| | | | | | | | |
|. | |--|--| | | | |. | |--|--| |. |--|--|
|-------------------|------------------|-------------------|--0-----------------|
|--0-------------0--|--1----0----------|--0-------------3--|----------0--0--3---|
|----------0--0-----|------------2-----|----------0--0-----|--0-----------------|
|-------0-----------|--2----0----------|-------0-----------|--------------------|
|-------2-----------|------------3-----|-------2-----------|-------2------------|
|--3----------------|--3---------------|--3----------------|--0-----------------|
| | | | | | | | |
[{]1------------------------- [{]2-----------------------
|. |--|--| |--| | | ||. |--| | | ||.
|--0----------------|--2--0------------|--------||--3--------------|------------|
|----------0--0--3--|--------3----2----|---3----||--0--3--1--------|------------|
|--0----------------|--0-----4----3----|---4---*||--0-----2--------|--0---------|
|-------------------|--------4----4----|---4---*||-------------4---|--0---------|
|-------2-----------|------------------|---2----||-------------5---|--2---------|
|--0----------------|------------------|--------||-----------------|--3---------|
| | | | | ||. | | | ||.]
Документ
Категория
Ноты, аккорды
Просмотров
27
Размер файла
4 Кб
Теги
вальс, брамс, иоганнес, колыбельная
1/--страниц
Пожаловаться на содержимое документа