close

Вход

Забыли?

вход по аккаунту

?

Брамс Иоганнес - Колыбельная (ор.49 №4)

код для вставкиСкачать
Колыбельная (ор.49 №4)
!Обозначения:
> G D C C3 Am
|-3-| |-2-| |-0-| |-3-| |-0-|
|-5-| |-3-| |-1-| |-5-| |-1-|
|-5-| |-2-| |-0-| |-5-| |-2-|
|-4-| |-0-| |-2-| |-5-| |-2-|
|-3-| |-0-| |-3-| |-3-| |-0-|
|-3-| |-x-| |-0-| |-3-| |-0-|
!. - 1/4
> G D
!. . . . . . . . . . . . . . .
|-------------------3-------|-------------------3-------|
|-----------3-----------3---|-----------3-----------3---|
|---4---4---4---------------|---4---4---4---------------|
|-----------5---------------|-----------5---------------|
|-----------5---------------|-----------5---------------|
|-----------3---------------|-----------3---------------|
> D C G
!. . . . . . . . . . . . . . .
|-----------3-------2-------|---0---0-----------3-------|
|-------3---3-------3-------|---1---1---3-----------3---|
|---4-------4-------2-------|-------0---4---------------|
|-----------5-------0-------|-------2---5---------------|
|-----------5-------0-------|-------3---5---------------|
|-----------3---------------|-------0---3---------------|
> Am
!. . . . . . . . . . . . . . .
|-------------------0-------|-------------------0-------|
|-------0---1-----------1---|-------0---1-----------1---|
|---2-------2---------------|---2-------2---------------|
|-----------2---------------|-----------2---------------|
|-----------0---------------|-----------0---------------|
|-----------0---------------|-----------0---------------|
> D G
!. . . . . . . . . . . . . . .
|-----------2---0--------2--|---3-------3---------------|
|-------1---3-------3-------|---3-----------3-----------|
|---2-------2------------2--|---4-----------------------|
|-----------0---------------|---5---------------5---5---|
|-----------0---------------|---5-----------------------|
|---------------------------|---3-----------------------|
> C3 G
!. . . . . . . . . . . . . . .
|---3-------3---------------|---3-------3---------------|
|---5-------5---5---5-------|---3-------3---3-----------|
|---5-----------5-------5---|---4-----------4---4-------|
|---5-----------------------|---5-------------------5---|
|---3-----------------------|---5-----------------------|
|---3-----------------------|---3-----------------------|
> C G
!. . . . . . . . . . . . . . .
|-------------------0-------|-----------3---------------|
|---1-------3---------------|---3-------3---3-----------|
|---0---------------0-------|---4-----------4-----------|
|---2-------2---------------|---5---------------5---5---|
|---3-----------------------|---5-----------------------|
|---0-----------------------|---3-----------------------|
> C3 G
!. . . . . . . . . . . . . . .
|---3-------3---------------|---3-------3---------------|
|---5-------5---5---5-------|---3-------3---3-----------|
|---5-----------5-------5---|---4-----------4---4-------|
|---5-----------------------|---5-------------------5---|
|---3-----------------------|---5-----------------------|
|---3-----------------------|---3-----------------------|
> C D G
!. . . . . . . . . . . . . . .
|---------------------------|---3-----------------------|
|---1---1---0---------------|---3-----------------------|
|---0---------------2-------|---4-----------------------|
|---2---------------0-------|---5-----------------------|
|---3---------------0-------|---5-----------------------|
|---0-----------------------|---3-----------------------|
Документ
Категория
Ноты, аккорды
Просмотров
18
Размер файла
4 Кб
Теги
брамс, иоганнес, колыбельная
1/--страниц
Пожаловаться на содержимое документа