close

Вход

Забыли?

вход по аккаунту

?

Братья Грим - Лето

код для вставкиСкачать
Лето
Вступление:<F>
>F
Что такое лето - счастливые билеты
>Am7
На поезд в безобразие
>B Gm7
Что такое лето - две смятые конфеты
>C C/11 C
На платье, yeh.
Что такое лето - у края парапета
Встречаемся, как голуби
Что такое лето - когда проснемся где-то
Мы голыми
> F
Я рыдал
> Am7 B Bm
Вместе с ураганом и ливнями
> F
Я искал
> Am7 B Bm
Песни заводные, игривые
> Gm7
Но нашел
> A7 Dm7 B+7
В тихом переулке мелодию
> Bm7 C F
И напел в первом переходе yeh
Что такое лето - безумная планета
Не видно в телескопы yeh
Что такое лето - цветов и сигарет
Не хватает
Что такое лето - вдохнем немного ветра
Свободного безделия
Бросим две монеты
Вернемся незаметно в мгновение
!Припев
> F
[E|------------------------13------|--------------------17--17--15--|
H|--------------------------------|--------------------------------|
C|----------------10--10----------|--------------------------------|
> Am7 B
E|15--12--12--8---8---------------|--------------------------------|
H|--------------------10--10--10--|11--11--------------------------|
C|--------------------------------|------------------------6-------|
> Bm F
E|------------------------13------|--------------------17--17--15--|
H|--------------------------------|--------------------------------|
C|5-------3-------10--10----------|--------------------------------|
> Am7 B
E|15--12--12--8---8---------------|--------------------------------|
H|--------------------10--10--10--|11--11----------------------10p8|
C|--------------------------------|--------------------------------|
> Bm Gm7
E|--------------------------------|--------------------17--17--15--|
H|----------------10--------------|10------------------------------|
C|10------------------------------|--------------------------------|
> A7 Dm7
E|15--12--12--9---9-----------15--|15--13p12-13--------------------|
H|--------------------10--10------|------------------------13\-----|
C|--------------------------------|--------------------------------|
> B B+7
E|--------------------------------|--------------------------------|
H|11--------------------------10--|------------10--------------11--|
C|--------------------12--10------|----12--10----------12--10------|
> C F
E|--------------------------------|------------13p12h13-------13p12|13
H|----10------11----------------10|--------------------------------|--
C|--------12----14p12p10-9h10h12--|10------------------------------|--]
!Припев
> Bm7 C
И напел в первом переходе
>F Fsus4 F Fsus4 F Gm7/11 F
yeh
!Комментарий автора подбора к песне:
!<Am7> (в куплете): [575555], [575558]
!<B>: [688766]
!<C/11>: [x32011]
!<Gm7/11>: [333333]
Документ
Категория
Ноты, аккорды
Просмотров
6
Размер файла
3 Кб
Теги
братья, грим, лето
1/--страниц
Пожаловаться на содержимое документа