close

Вход

Забыли?

вход по аккаунту

?

Братья Грим - Ресницы

код для вставкиСкачать
Ресницы
>Cm Gm
Куплет 1:Губы у тебя
> Cm Gm
Вкуса миндаля
>Fm B
Словно конопля (Алая петля)
> G# G
Дурят ну-ну-ну
> Cm Gm
Слов не говоря
>Cm Gm
Искусай меня
> Fm B
Силы не жалей
> G# G
Дурака валяй
> Fm Gm Cm
Припев:Хлопай ресницами и взлетай
> Gm Fm Gm Fm Gm
Присниться не забывай ту-ру-ту-ту-дай ту-ту-ту-ру-ту-ту-дай
Хлопай ресницами и взлетай
Синицею и пугай ту-ру-ту-ту-дай ту-ту-ту-ру-ту-ту-дай
Куплет 2:У тебя глаза словно бирюза
Резко по газам вдарим ну-ну-ну
Может быть и я вкуса миндаля
И могу летать веками порхая
!Припев
-
Проигрыш:<Cm | Gm>
> Cm Gm Cm Gm
[E|--------------------------------------------------|
H|------4------3------6---------4-4-----3-------6-6-|
G|--------------------------------------------------|
D|--3-5----3-5----3-5-------3-5-----3-5-----3-5-----|
A|--------------------------------------------------|
E|--------------------------------------------------|
> Cm Gm Cm
E|----------------------------------------|
H|------4------3------6---------4-4-----3-|
G|----------------------------------------|
D|--3-5----3-5----3-5-------3-5-----3-5---|
A|----------------------------------------|
E|----------------------------------------|]
> Cm Gm
Губы у тебя
> Cm Gm
Вкусы миндаля,
> Ab B
Словно конопля -
> Ab Gm
Дурят. У ну-ну-ну-у-у...
Слов не говоря,
Искусай меня.
Силы не жалей.
Дурака валяй.
> Fm B Cm
Хлопай ресницами и взлетай
> Gm Ab
Приснится не забывай
> Ab B
Туру-ту-ту-ту-дай
> Ab Gm
Туту-ту-ру-ту-дай.
Хлопай ресницами и взлетай
Синицею, иволгой.
Туру-ту-ту-ту-дай
Туту-ту-ру-ту-дай.
!Проигрыш
У тебя глаза
Словно бирюза
Резко по газам
Вдарим ну-ну-ну.
Может быть и я,
Вкусы миндаля.
И могу летать,
Веками порхая.
!Припев
Хлопай и взлетай
Не забывай, не забывай
Хлопай и взлетай
Не забывай, не забывай, вай, вай
[E|--13-13-----------------13-13-------------|
H|--------15-15-----------------15-15-------|
G|--------------13-12----12-------------12--|
E|--------15---------15---|
H|-----13------13-15------|
G|--12--------------------|]
!(во время первых припев играется то же соло на октаву ниже)
Хлопай и взлетай
Не забывай, не забывай
Хлопай и взлетай
Не забывай, не забывай, вай, вай.
!Комментарий: Бой похож на "Звери - Дожди-пистолеты".
Документ
Категория
Ноты, аккорды
Просмотров
14
Размер файла
3 Кб
Теги
братья, грим, ресниц
1/--страниц
Пожаловаться на содержимое документа