close

Вход

Забыли?

вход по аккаунту

?

Бутусов Вячеслав - Alen De Lon

код для вставкиСкачать
Alen De Lon
!Intro
e|-------------------------------------------------|
H|--5--6--5------------------------5--6--5---------|
G|----------5-----5--5-4-5-4---------------5-----5-|
D|-------------7-------------7----------------7----|
A|------------------------------7------------------|
E|-------------------------------------------------|
e|-------------------------------------------------|
H|-------------------------------------------------|
G|--5-4-5-4----------------------------------------|
D|----------7--------------------------------------|
A|-------------------------------------------------|
E|-------------------------------------------------|
!The thing that guitar plays throughout the song.
e|---------------------------|
H|---------------------------|
G|--2-5--4--5---2-2-5--4--5--|
D|---------------------------|
A|---------------------------|
E|---------------------------|
!And sometimes...
e|-------------------------------------------------|
H|--3-5-6-3-5-6-3-5-6....(echo)--------------------|
G|-------------------------------------------------|
D|-------------------------------------------------|
A|-------------------------------------------------|
E|-------------------------------------------------|
!Sax solo.
e|-----------7---------8--------10-------12--10--8--7--|
H|-------10--------10-------10-------10----------------|
G|----9---------9--------9--------9--------------------|
D|-----------------------------------------------------|
A|-----------------------------------------------------|
E|-----------------------------------------------------|
Документ
Категория
Ноты, аккорды
Просмотров
32
Размер файла
2 Кб
Теги
бутусов, alena, lon, вячеслав
1/--страниц
Пожаловаться на содержимое документа