close

Вход

Забыли?

вход по аккаунту

?

Бутусов Вячеслав - Девушка по городу

код для вставкиСкачать
Девушка по городу
!Я с другом её на две гитары играю,
!попробуй дуэтом.
Вступление:<Gm Eb F D>
>Gm Eb F Dm
Девушка по городу шагает босиком,
>Gm Eb F Dm
Девушке дорогу уступает светофор.
>Cm
Сверху улыбается воздушный постовой,
Девушка в ответ ему кивает головой.
А где-нибудь за городом идёт весенний лёд,
Девушке навстречу расступается народ.
Девушка - по Пушкинской на Лиговский в обход,
Следом по каналу проплывает пароход.
>Gm
А за окном мелькают дни,
>Eb
Они как взлётные огни -
>F
Одни заметны с высоты,
>D
Другие вовсе не видны.
А на дворе цветёт весна,
Она в кого-то влюблена,
А этот кто-то за окном
Сидит и видит день за днём,
Как девушка по городу шагает босиком,
По скверам и по улицам порхает мотыльком.
Девушка ныряет через арку напролёт,
Солнце пригревает, сердце девушки поёт,
Как за окном мелькают дни,
Они как птицы далеки.
Одни витают в облаках,
Другие вовсе не видны.
А на дворе цветёт весна,
Она в кого-то влюблена,
А этот кто-то за окном
Сидит и видит день за днём...
Соло:<Gm Eb F D Gm Eb F D>
|--------------------------------|--------------------------------|
|--------108---------------------|--------11108-----------7-------|
|------7-----108---------7-----7-|------7-------10----------------|
|8---8-----------10--7-10----7---|8---8-----------10--7-10----7/9-|
|--10--------------8-------9-----|--10--------------8-------------|
|--------------------------------|--------------------------------|
>Cm
|--------------------------------|--------------------------------|
|--------------------------------|--------------------------------|
|----8-----8-----11----8-----8---|----8-----8-----11----8-----8---|
|1010--1010--1010--1010--1010--10|1010--1010--1010--1010--1010--10|
|--------------------------------|--------------------------------|
|--------------------------------|--------------------------------|
Как за окном мелькают дни,
Они как птицы далеки.
Одни витают в облаках,
Другие вовсе не видны.
А на дворе цветёт весна,
Она в кого-то влюблена,
А этот кто-то за окном
Сидит и видит день за днём...
Документ
Категория
Ноты, аккорды
Просмотров
5
Размер файла
2 Кб
Теги
бутусов, девушка, город, вячеслав
1/--страниц
Пожаловаться на содержимое документа