close

Вход

Забыли?

вход по аккаунту

?

Бутусов Вячеслав - Прогулки по воде

код для вставкиСкачать
Прогулки по воде
!(В. Бутусов - И. Кормильцев)
> Em
с причала рыбачил апостол Андрей
> H
а Спаситель ходил по воде
> Am
и Андрей доставал из воды пескарей
> Em
а Спаситель погибших людей
> Em
и Андрей закричал: я покину причал
> H
если ты мне откроешь секрет!
> Am
а Спаситель ответил: спокойно, Андрей!
> Em
никакого секрета здесь нет
Припев:<G D>
видишь там на горе
>Am Em
возвышается крест
>G D
под ним - десяток солдат
>Hsus H
повиси-ка на нем
>G D
а когда надоест
>Am Em
возвращайся назад
>C G
гулять по воде гулять по воде
>Hsus H
гулять по воде со мной
но Учитель! на касках блистают рога
черный ворон кружит над крестом
объясни мне сейчас пожалей дурака
а распятье оставь на потом
онемел Спаситель и топнул в сердцах
по водной глади ногой
ты и верно дурак! - и Андрей в слезах
побрел с пескарями домой
!Припев
-
> Am
С причала рыбачил апостол Андрей,
> E7
А спаситель ходил по воде.
> Dm
И Андрей доставал из воды пескарей,
> Am
А спаситель - погибших людей.
И Андрей закричал - Я покину причал,
Если ты мне откроешь секрет.
А спаситель ответил - Спокойно, Андрей,
Никакого секрета здесь нет.
Припев:< C G7 Dm Am>
Видишь там на горе возвышается крест.
! <C G7 Dm F G> (или <C G E7>)
Под ним десяток солдат. Повиси-ка на нем,
А когда надоест, возвращайся назад,
! <Am7 G> (или <F C E7>)
Гулять по воде, гулять по воде,
> Dm F G
Гулять по воде со мной.
Но, учитель, на касках блистают рога,
Черный ворон кружит над крестом.
Объясни мне сейчас, пожалей дурака,
А распятье оставь на потом.
Онемел спаситель и топнул в сердцах
По водной глади ногой:
Ты и верно дурак, и Андрей, в слезах,
Побрел с пескарями домой.
Припев:Видишь там на горе возвышается крест. \
Под ним десяток солдат. Повиси-ка на нем, \
А когда надоест, возвращайся назад, } 2 раза
Гулять по воде, гулять по воде, /
Гулять по воде со мной. /
Соло:1|-7-7-7-------5-5-5-------5-5-5-------3-3-3-------| } 2 раза
2|-------8-8-8-------7-7-7-------5-5-5-------5-5-5-|
1|7--7--10-10-8-7-----8-8-7---------7---7---5---5----8----8----11----11-|
2|----------------10--------10-8--8---8---7---7---10---10---10----10----|
1|7--7--10-10-8-7-----8-8-7---------3---3---7---7---2---2---5---5---8---|
2|----------------10--------10-8--5---5---8---8---4---4---4---4---7---7-|
-
E-7-7-7--------7-7-7---7----|-5-5-5-------5-5-5---5----|-
B-8-----8-8-8--------8---8--|-7-----7-7-7-------7---7--|
G-9-------------------------|-7------------------------|-
D-9-------------------------|-7------------------------|
A---------------------------|--------------------------|-
E---------------------------|--------------------------|
E-5-5-5--------5-5-5---5----|-3-3-3-3-2-0-3------------|-
B-5-----5-5-5--------5---5--|-5------------------------|
G-5-------------------------|-4------------------------|-
D-7-------------------------|-5------------------------|
A---------------------------|--------------------------|-
E---------------------------|--------------------------|
!повторить 2 раза
E-7-7-8-10-10-8p7-----------|-8-8-7--------------------|-
B-8---------------10--------|-------10-----------------|
G-7-------------------------|----------9---------------|-
D-9-------------------------|--------------------------|
A---------------------------|--------------------------|-
E---------------------------|--------------------------|
E---7---7---5---5-----------|---5---5-7-8-7-5----------|-
B-8---8---7---7-------------|-5---5--------------------|
G---------------------------|--------------------------|-
D---------------------------|--------------------------|
A---------------------------|--------------------------|-
E---------------------------|--------------------------|
E-7-7-8-10-10-8p7-----------|-8-8-7--------------------|-
B-8---------------10--------|-------10-----------------|
G-7-------------------------|----------9---------------|-
D-9-------------------------|--------------------------|
A---------------------------|--------------------------|-
E---------------------------|--------------------------|
E---------------------------|---5---5-7-8-7-8-11-10-11-14
B---8---8---8---8-----------|-5---5--------------------|
G-9---9---7---7-------------|--------------------------|-
D---------------------------|--------------------------|
A---------------------------|--------------------------|-
E---------------------------|--------------------------|
e-7-7-7-----7-7-7-----5-5-5-----5-5-5-----5-5-5-----5-5-5----3-3-3-----3-3-3---
- -
H------8-8-8-----8-8-8-----7-7-7-----7-7-7-----5-5=5-----5-5-5----5-5-5-----5-5
- 5
!Играть два раза
e-7-7-7-8-10-10-8-7----8-8-7-------7-7-7---
H-------------------10------10-8--8-8-8---- Затем <Am> и <H7>, желательно с баре
!и это тоже играть два раза.
> D A
> Am
С причала рыбачил апостол Андрей
> Em Hm
> F
А спаситель ходил по воде
> Dm
И Андрей доставал из воды пескарей
> Am E7
А спаситель погибших людей.
> Am
И Андрей закричал: "Я покину причал
> Dm
Если ты не откроешь секрет..."
> F
И спаситель ответил: "Спокойно Андрей,
> C E7
Никакого секрета здесь нет.."
Припев:< C G Dm Am>
Видишь там на горе возвышается крест
> C G
Под ним десяток солдат
> Dm E7 C G
Повиси-ка на нем, а когда надоест
>Dm Am
Возвращайся назад
> F
Гулять по воде
> C
Гулять по воде
> Dm E7
Гулять по воде со мной
Но учитель на касках блистают рога
Черный ворон кружит над крестом
Объясни мне сейчас, пожалей дурака
А распятье оставь на потом
Онемел спаситель и топнул в сердцах
По водной глади ногой
Ты и верно дурак и Андрей в слезах
Побрел с пескарями домой
!Припев
!-----------------------------------------------------------
E-7-7-7--------7-7-7---7----|-5-5-5-------5-5-5---5----|-
B-8-----8-8-8--------8---8--|-7-----7-7-7-------7---7--|
G-9-------------------------|-7------------------------|-
D-9-------------------------|-7------------------------|
A---------------------------|--------------------------|-
E---------------------------|--------------------------|
E-5-5-5--------5-5-5---5----|-3-3-3-3-2-0-3------------|-
B-5-----5-5-5--------5---5--|-5------------------------|
G-5-------------------------|-4------------------------|-
D-7-------------------------|-5------------------------|
A---------------------------|--------------------------|-
E---------------------------|--------------------------|
!повторить 2 раза
E-7-7-8-10-10-8p7-----------|-8-8-7--------------------|-
B-8---------------10--------|-------10-----------------|
G-7-------------------------|----------9---------------|-
D-9-------------------------|--------------------------|
A---------------------------|--------------------------|-
E---------------------------|--------------------------|
E---7---7---5---5-----------|---5---5-7-8-7-5----------|-
B-8---8---7---7-------------|-5---5--------------------|
G---------------------------|--------------------------|-
D---------------------------|--------------------------|
A---------------------------|--------------------------|-
E---------------------------|--------------------------|
E-7-7-8-10-10-8p7-----------|-8-8-7--------------------|-
B-8---------------10--------|-------10-----------------|
G-7-------------------------|----------9---------------|-
D-9-------------------------|--------------------------|
A---------------------------|--------------------------|-
E---------------------------|--------------------------|
E---------------------------|---5---5-7-8-7-8-11-10-11-14
B---8---8---8---8-----------|-5---5--------------------|
G-9---9---7---7-------------|--------------------------|-
D---------------------------|--------------------------|
A---------------------------|--------------------------|-
E---------------------------|--------------------------|
-
VL&gt; E-7-7-8-10-10-8p7-+--+--+---|-8-8-7-+--+--+--+--+--+---|-
VL&gt; B-8-+--+--+--+--+-10-+--+---|-+--+--10-+--+--+--+--+---|
VL&gt; G-7-+--+--+--+--+--+--+--+--|-+--+--+--9-+--+--+--+--+-|-
VL&gt; D-9-+--+--+--+--+--+--+--+--|-+--+--+--+--+--+--+--+---|
VL&gt; A-+--+--+--+--+--+--+--+--+-|-+--+--+--+--+--+--+--+---|-
VL&gt; E-+--+--+--+--+--+--+--+--+-|-+--+--+--+--+--+--+--+---|
! ^ только здеся, наверное, 8
! (а то душа точно не выдержит)
!А вот ежели так:
E-7-7-7--------7-7-7---7----|-5-5-5-------5-5-5---5----|-
B-8-8-8-8-8-8--8-8-8-8---8--|-7-7-7-7-7-7-7-7-7-7---7--|
G-------0-0-0--------0------|-------8-8-8-------8------|-
D---------------------------|--------------------------|
A---------------------------|--------------------------|-
E-0------------0------------|-7------------------------|
! (р)
E-5-5-5--------5-5-5---5----|-3-3-3-------3----(12)----|-
B-5-5-5-5-5-5--5-5-5-5---5--|-0-0-0-0-0-0-----0----0---|
G-------5-5-5--------5------|-------0-0-0---0--------0-|-
D---------------------------|--------------------------|
A-0------------0------------|--------------------------|-
E------(0)----------(0)-----|-0-----------0------------|
!повторить 2 раза
или 0
E----7-7-7-10-10-10-8p7-5------|----8-8-7-5-3----(12)-----|-
B---8-----------------------7--|---5------------0----0----|
G--7----------------------7----|--5-----------0--------0--|-
D-0---------------------0------|--------------------------|
A------------------------------|-0------------------------|-
E------------------------------|------------0-------------|
!повторить 3 раза
E-3-----3-----7-----7-------|-5-----8---8-8-----7------|-
B-----1---1-------8---8-----|-----5-----------7---7----|
G---0-------0---7-------7---|---5-----5-----8-------8--|-
D-------------0-------------|--------------------------|
A-3-------------------------|-0------------------------|-
E---------------------------|-------------7-----------7|
Документ
Категория
Ноты, аккорды
Просмотров
34
Размер файла
11 Кб
Теги
бутусов, воде, прогулка, вячеслав
1/--страниц
Пожаловаться на содержимое документа