close

Вход

Забыли?

вход по аккаунту

?

Виа Гра - Попытка №5

код для вставкиСкачать
Попытка №5
Вступление:1|----------13-13--------------------10-10-------8-|
2|-10-12-13-------13-13-12-10-8----8-------12-12---|
3|------------------------------12-----------------|
4|-------------------------------------------------|
1|---------------------------------------10-10------------|
2|-10-12-13--12-10-8-----10-8-8-----8-12-------12-12-13---|
3|-------------------12---------12------------------------|
4|--------------------------------------------------------|
1|----------13-13--------------------10-10-------8-|
2|-10-12-13-------13-13-12-10-8----8-------12-12---|
3|------------------------------12-----------------|
4|-------------------------------------------------|
1|---------------------------------------10-10------------|
2|-10-12-13--12-10-8-----10-8-8-----8-12-------12-12-10---|
3|-------------------12---------12------------------------|
4|--------------------------------------------------------|
> Am
(1)Я мало кого любила:
> C Em G Am
Второй надоел, третьего забыла,
Четвертый исчез во вторник,
О первом почти ничего не помню.
> Dm
Припев:Hо 5-й мой совсем не ТАКОЙ,
> Dm
В его руках я таю как снег,
> Dm
Меня уносит теплой рекой
> E
В поднебесье!
>Am Dm G E Am
Припев:А я простила, я простила его опять, опять, опять,
> G C E
О, как намаялась я стобой, моя попытка N5!
А я простила, я простила его, напрасно, видимо.
Теперь страдаю от этого, теряя независимость.
1|----------13-13--------------------10-10-------8-|
2|-10-12-13-------13-13-12-10-8----8-------12-12---|
3|------------------------------12-----------------|
4|-------------------------------------------------|
1|---------------------------------------10-10------------|
2|-10-12-13--12-10-8-----10-8-8-----8-12-------12-12-13---|
3|-------------------12---------12------------------------|
4|--------------------------------------------------------|
1|----------13-13--------------------10-10-------8-|
2|-10-12-13-------13-13-12-10-8----8-------12-12---|
3|------------------------------12-----------------|
4|-------------------------------------------------|
1|---------------------------------------10-10------------|
2|-10-12-13--12-10-8-----10-8-8-----8-12-------12-12-10---|
3|-------------------12---------12------------------------|
4|--------------------------------------------------------|
(2)Подруги просили слезно:
"Алена, спасайся, пока не поздно!"
"Держись от него подальше!"-
Печально сказала подруга Маша.
Припев:Hо 5-й мой совсем не ТАКОЙ,
В его руках я таю как снег,
Меня уносит теплой рекой
В поднебесье!
Припев:А я простила, я простила его опять, опять, опять,
О, как намаялась я стобой, моя попытка N5!
А я простила, я простила его, напрасно, видимо.
Теперь страдаю от этого, теряя независимость.
-
!1\2 1-CТPУНA 2-ЛAД
ВCТУПЛEНИE:[3\4 2\2 2\3 1\3 1\3 2\3 2\3 2\2 3\4 3\2 3\2 3\2 2\5 2\5 2\2 2\2 2\3]
![3\4 2\2 2\3 2\2 3\4 3\2 3\2 3\4 3\2 3\2 3\2 3\2 2\5 2\5 2\3 2\2 3\4]!!!
!ДOЛЖНO ПOДOЙТИ!!!)))
Документ
Категория
Ноты, аккорды
Просмотров
8
Размер файла
3 Кб
Теги
виа, попытка, гра
1/--страниц
Пожаловаться на содержимое документа