close

Вход

Забыли?

вход по аккаунту

?

Вивальди Антонио - Концерт №9 в D

код для вставкиСкачать
Концерт №9 в D
!I - Andante
!1
[e||-2-|-2-2-2-5-3-5-5-|-------2-0-2-5-|---------------|---5-0---0-3-2-0-2-5-|
B||-3-|-3-3-3---------|-3-3-3-----2---|-0-0-0-3-2-3-3-|-2-----3-------------|
G||-2-|-2-2-2-----6---|-4-4-4-----2---|-0-0-0-----2---|-2-------------------|
D||---|---0-0-----7---|-4-4-4---------|-0-0-0-----4---|-2-----------0-------|
A||---|-----------0---|-2-2-2---------|---------------|-0---4---------------|
D||-0-|-0-------------|-----------4---|-5-5-5-----0---|---------------------|]
!5 CV......
[e|-------5---7-5-----0-2-3-2-5-3-2-|-0-------5-2-5-3-5-5-|-0-5-3-5-5-2-5-3-5-5-|
B|-8-7-8---8-----8-7---------------|-----------3---------|-2---------3---------|
G|---------------------------------|---2-----------------|---------------------|
D|-----------------0-----------0---|-----------0---------|-----------0---------|
A|---------0-----------------------|-0-0-2-4-0-----------|-0-------------------|
D|-5-------------------------------|---------------------|---------------------|]
!8
[e|-0-5-3-5-5-2-5-3-2-0-------|-------------2-0---0-|-2-3-2-0---0-2-3-5-3-2-|
B|-2-------------------3-2-0-|---3-----2-3-----3-2-|-3-------3-------------|
G|-------------------0-------|-2---0-2-------------|-----------------------|
D|-----------0---------------|---4-------0---------|-0-----------0-2-4-0---|
A|-0-------------------------|---------0---------0-|-----------4-----------|
D|---------------------------|---------------------|-----------------------|]
!11
[e|-0-----5-3-5-2-3-0-2---3-2-3-|-0-2---0---2-0-2---0-------0---0-|
B|---------------------3-------|-----3---2-------3---2-3-0---3---|
G|---2-------------------------|---------------------------------|
D|-------------0---------------|---------------------------------|
A|-0-2-4---0-----------2-------|-4-------0-------2---------------|
D|-----------------------------|-------------------------6-------|]
!13
[e|-----------0---0-2-4-0-2-4-5-2-4-|-5-4-5-7-5-4-5-7-5-4-5-7-5-4-5-7-|
B|-2-3-0-2-----3-------------------|---------------------------------|
G|---------2-----------------------|---------------------------------|
D|-----------------0-------2-------|-7-------6-------4---------------|
A|-0-----------0-------------------|-------------------------7-------|
D|---------------------------------|---------------------------------|]
!15
[e|-5-4-5-7-5-4-5-7-5-4-5-7-4-5-7-4-|-5---------5-3-2-0-----0-2-3-2-3-|
B|---------------------------------|-----0-2-3---------3-2-----------|
G|---------------------------------|---2-----------------------------|
D|-0---------------0-------7-------|-------------0-----------0---0---|
A|---------4-----------------------|-0---------------0---0-----------|
D|---------------------------------|---------------------------------|]
!17
[e|-0-----0-2-3-2-3-0-----0-2-3-2-3-|-0-------0-2-0-----------0---0-|
B|---3-2-------------3-2-----------|---------------3-2-0-2-3---3---|
G|---------------------------------|---2-----------1---------------|
D|---------0---0-----------0---0---|---------------2---------------|
A|-0---0-----------0---0-----------|-0-0-2-4---0-------------------|
D|---------------------------------|-------------------------------|]
!19
[e|-----------0---0-----------2-0---|-----------5-7-5-3-2-0-2-3-5-3-5-|
B|-3-2-0-2-3---3---3-2-0-2-3-----3-|-2-3-2-0-------------------------|
G|---------------------------------|---------2-----------------------|
D|-2---------------2---------------|-----------------2---------------|
A|---------------------------------|-0-------------------------------|
D|---------------------------------|---------------------------------|]
!21
[e|-3-2-0-2-3-7-5-3-2-0---0-2-3-2-3-|-2-0---0-2-5-3-2-0-------0-2-0-2-|
B|---------------------3-----------|-----3-------------3-2-3---------|
G|---------------------------------|---------------------------------|
D|-----------------0---------------|---------------------------------|
A|-4-------------------------------|-2---------------4---------------|
D|---------------------------------|---------------------------------|]
!23
[e|-0-------0-3-2-0---2-0-2---2-0-2-|---2-0-2---2-0-2-------2-2-|
B|---3-2-3---------3-------2-------|-3-------2-------3-0---3-3-|
G|---------------------------------|---------------------------|
D|---------------------------------|-----------------------0---|
A|-1---------------2-------1-------|-2-------1-------2-2-4---2-|
D|---------------------------------|---------------------------|]
!25 tr
[e|-2-3-2-0-0-0-2-0-----|---2-0-------------2-2-|-2-5-3-2-0-0-0-3-2-0---7-5-|
B|-3-5-3-2-2-2-3-2-3-3-|-3-----3-2-3-2---0-3-2-|-0-------2-0---------3-----|
G|-----------------4-4-|-4---------------------|-0-----------3-------4-----|
D|---------------------|-2-------4---------0---|-------------4---------0---|
A|-4-------1-2-------2-|-----4-----------2-----|---------4-----------2-----|
D|---------------------|---------------4-------|---------------------------|]
!28 tr
[e|-3-2-0---------------2-0-2---0-----|-----------------0-3-2-3-0-2---0-|
B|-------3-2-3-2---0-0-------3---2-3-|-0-0-2-3-0-0-2-4-------------3---|
G|-----------------------------------|---------------------------------|
D|-2-------4-------------------------|---------------------------------|
A|-------------------2---------------|-2-------0-----------------------|
D|---------------4-------------------|-----------------5---------------|]
!30
[e|-------0-------0-2-5-3-5-2-3-0-2-|-----0-2-----0-2-3-5-7-5-3-5-2-3-|
B|-2-2-3---2-2-3-------------------|-3-3-----3-2---------------------|
G|---------------------------------|---------------------------------|
D|-----------------0---------------|-----------------2-----------0---|
A|-0-------0-----------------------|-2-------2-----------------------|
D|---------------------------------|---------------------------------|]
!32
[e|-0-2-3-2-0-2---0-----0-----------|-----------5-3-2-0-----0-2-3-2-3-|
B|-------------3---2-3---3-2-3-0-2-|-------------------3-2-----------|
G|---------------------------------|-2-------------------------------|
D|---------------------------------|---------0---0-----------0---0---|
A|-4-----------2---0---------------|---0-2-4---------0---0-----------|
D|---------------------------------|---------------------------------|]
!34
[e|-0-----0-2-3-2-3-0-----0-2-3-2-3-|-0---5-5-5-3-2-3-3-|-3-2-0-2-2-2-0---0-0-|
B|---3-2-------------3-2-----------|-------7-7-------5-|-5-------3-3---3---2-|
G|---------------------------------|---2---6-4-------4-|-2-------2-0-------0-|
D|---------0---0-----------0---0---|---------0-----2---|-------0-------------|
A|-0---0-----------0---0-----------|-0-----0-----------|-4---------2-----4---|
D|---------------------------------|-------------------|---------------------|]
!37 tr
[e|-0---0-------------|---5-3-5-5-0-5-3-5-5-|-2-5-3-5-5-0-5-3-5-5-|
B|-2-3---3-3-3-2-3-2-|-3---------2---------|-3---------2---------|
G|---------4-4-2-----|-2-------------------|---------------------|
D|-4-------4-2-2-----|-4-------------------|-0-------------------|
A|-0-----2-----0-----|-----------0---------|-----------0---------|
D|-----------5-------|-0-------------------|---------------------|]
!40
[e|-2-3-2-0---2-0---0-3-2-0-2-5-|-3-2-3-5-3-7-5-3-2-0-2-3-2-5-3-2-|
B|-3-------3-----3-------------|---------------------------------|
G|-----------------------------|---------------------------------|
D|-0---------0---------0-------|-2---------------0-----------0---|
A|-------------4---------------|---------0-----------------------|
D|-----------------------------|---------------------------------|]
!42
[e|-0-----0-2-0---2-0-----0-2-0---2-|-0-----0-------------------------|
B|---3-2-------3-----3-2-------3---|---3-2---3-2-0-3-2-0---2-3-2-0-3-|
G|---------------------------------|---------------------2-----------|
D|---------------------------------|---------------------------------|
A|-0===============================|=0---------------0===============|
D|---------------------------------|---------------------------------|]
!44
[e|-----------------0-----0-2-0---2-|-3-2-0-2-3-2-3-0-5---5-7-5---5-7-|
B|-2-0---2-3-2-0-3---3-2-------3---|-------------------8-------8-----|
G|-----2---------------------------|---------------------------------|
D|---------------------------------|---------------------------------|
A|=0---------------0===============|=0---------------0---------------|
D|---------------------------------|---------------------------------|]
!46
[e|-5---5-7-5---5-7-5---5-7-5---5-7-|-5-3-2-0-----------2-2-|
B|---8-------8-------8-------8-----|---------3-2-0-2---3-3-|
G|---------------------------------|-----------------2-2-2-|
D|---------------------------------|-------------------0-0-|
A|-0---------------0-------0-------|-0-------------0-------|
D|---------------------------------|-----------------------|]
!48
[e|-0-0---0-0---5-3-5-5-|-0-5-3-5-5-2-5-3-5-5-|
B|-3---3-2-2-3---------|-2---------3---------|
G|-2-----2-2-2---------|-2---------2---------|
D|-----------4---------|-----------0---------|
A|-------0-0-----------|-0-------------------|
E|-----------0---------|---------------------|]
!50
[e|-0-5-3-5-5-2-5-3-2-0-------|--------------||
B|-2-----------------0-3-2-0-|---3-----2-3--||
G|-2---------2---------------|-2-----2-2-2--||
D|-----------0---------------|---------2-4--||
A|-0-------------------------|-0-----0-0----||
D|-------------------5-------|---4-5-----0--||]
!II- Largo
!1
[e||-2-2-2-2-2-2-|-3-3-3-3-3-3-|-3-3-2-2-1-1-|-------------|
B||-3-3-3-3-3-3-|-3-3-2-2-2-2-|-3-3-3-3-3-3-|-6-6-5-5-5-5-|
G||-2-2-2-2-2-2-|-0-0-2-2-2-2-|-2-2-2-2-2-2-|-7-7-7-7-6-6-|
D||-------------|-------------|---------0-0-|-9-9-7-7-7-7-|
A||-------------|-----0-0-0-0-|-------------|-----0-0-0-0-|
D||-0-0-0-0-0-0-|-2-2---------|-0-0-0-0-----|-6-6---------|]
!5 CV...................tr
[e|-----------------------------------|-------------------------5-------|
B|-3-7-5-7-----7-5-7-----7-7-8-7-5---|-5-8-7-8-5-5-8-7-8-----8---8-7-5-|
G|---------7-7---------------------7-|-7-----7---6-----6-------6-------|
D|-4-----------------7-7-------------|-7-----7-----------7-7-----------|
A|-------5---5-----5---5---5---------|-----------0-----0---0---0-------|
D|-0---------------------------------|---------------------------------|]
!7 tr
[e|-2-2-2-2-1-1-|-------------|---------------------------------|
B|-3-3-3-3-3-3-|-6-6-5-5-5-5-|-3-7-5-7-----7-5-7---7-7-8-7-5---|
G|---2-2-2-2-2-|-7-7-7-7-6-6-|---------7-7-------------------7-|
D|-0-------0-0-|-9-9-7-7-7-7-|-4-----------------7-------------|
A|-------------|-----0-0-0-0-|-------5---5-----5-5---5---------|
D|---0-0-0-----|-6-6---------|-0-------------------------------|]
!10
[e|-------------------------5-------|---5---5-----------------------|
B|-5-8-7-8-5-5-8-7-8-----8---8-7-5-|-7---8-------7-5-7---0-----0---|
G|-7-----7---6-----6-------6-------|-7-------7-7-------4---7-6-7---|
D|-7-----7-----------7-7-----------|-0-----0---0-----0---0-----0---|
A|-----------0-----0---0---0-------|-----------------------------7-|
D|---------------------------------|-------------------------------|]
!12
[e|-------0-0---------------|-------------------------|
B|---0-0---------0-0-------|-------5-5-----5-7-----7-|
G|-----------------------7-|-7-6-6---6-------7-------|
D|-----------6-6-----------|-0---7-----7-7-----7-7---|
A|-7---7---7---7---7-7-7---|-0---0---0---0---5---5---|
D|-6---6---6---6---6---6---|-------------------------|]
!14 tr
[e|-----------------0---------------|-------5-5-5-5-7-5-7-5-3---|
B|-5---7-5---7-5-7---3-2-0-2-0-----|-------------------------7-|
G|---7-----7---6-----------------2-|-2-------6---6-----6-------|
D|-------------------0---2---------|---------------------------|
A|-------------0-------------------|-0-0-0---0---0-----0-------|
D|---6-----6-------------------2---|---------------------------|]
!16
[e|-----0-------0-------0-------0-----5---5-----0-|
B|-8-7---7-8-7---7-8-7---7-8-7---7-8---8---8-7---|
G|-6-------6-------6-------6-------6-----6-------|
D|-----------------------------------------------|
A|-0-------0-------0-------0-------0-----0-------|
D|-----------------------------------------------|]
!17
[e|---0---0---------------------------------|
B|-7---7---7------0-----0--------0---------|
G|-7-----------11-11-11-11-12-11-12-11-9-7-|
D|-0-------0-0----0-----0--------0---------|
A|-----------------------------------------|
D|-----------------------------------------|]
!18
[e|-----------------------------------------------|
B|-----------------------------------7---7-------|
G|-9-7-6-7-9-7-6-7-9-7-6-7-9-7-6-7-9---9---9-7-6-|
D|-----------------------------------------------|
A|-9-------9-------9-------9-------9-----9-------|
D|-8-------8-------8-------8-------8-----8-------|]
!19 tr
[e|---------0-2-0-------2-----0-2-0-----|---------0-2-0-----7-------------|
B|-3---2-3-------3-0-3---2-3-------3-2-|-3---2-3-------3-7-0-----------0-|
G|---4---------------------------------|---4-----------4-----7-6-7-6-----|
D|-4-----------------------------------|---------------0-------4-----4---|
A|-2-----2-------2---2---1-----1-------|-2-----2-----------7-------------|
D|-------------------------------------|---------------------------------|]
!21
[e|---------2-------7-------|-3-2-0-2-3-2-0-2-3-2-0-2-3-2-0-2-3-5-3-5-3-2-0-|
B|-0-3-2-0---4-2-0---3-2-0-|-0-------0-------2-------2-------5-----2-------|
G|-------------------------|-----------------0---------------2-------------|
D|-------------------------|-2-------2-------------------------------------|
A|-2-----------------------|-----------------0-------0-------0-----0-------|
D|-------------------------|-----------------------------------------------|]
!23 tr
[e|-2-3-2-3-5-7-0-0-3-2-3-0-0---|---------------------------------|
B|-3-----3-------0-----0---0-3-|-2-------6---5-6-6-6-8-6---5-6-6-|
G|-----------7---0-----0-------|-2-2-2-2-7-7---7---7-----7---7---|
D|-0-----0---5-----------------|---------------------------------|
A|-----------------------------|-0---0---------------------------|
D|-------------------------5---|---------6-----6---6---------6---|]
!25 tr tr
[e|-----------------0-1-1-1-3-1---0-1-1-|-1-0-0---3-2-3-5-3-2-3-5-3-5-3-5-3-2-0-|
B|-6-8-6-5-5---6-----3---3-----3---3---|-3---2---2-------2-------2-----2-------|
G|-7-------6---7-7---0---0---------0---|-2-----2-------------------------------|
D|-----------7-6-----------------------|---------------------------------------|
A|-0-------0---------------------------|-----0---0-------0-------0-----0-------|
D|-------------------------------------|---------------------------------------|]
!27
[e|-2-3-5-3-2-0---------------------|
B|-3-----------3-2-3---------------|
G|---------------------7-----7---6-|
D|-0-----------------4---4---------|
A|---------4-------2---0---7---7---|
D|-------------------------6---7---|]
!28
[e|---------------------------------------0-2-3-|
B|-3-2-3-3-3-2-3-3-3-2-3-3-3-2-3-3-3-2-3-------|
G|---------------------------------------------|
D|-4-------0-----------------------------------|
A|-----------------4-------4-------2-------2---|
E|-0-------------------------------------------|]
!29
[e|---------------------------------------0-2-3-5-7-|
B|-3-2-3-3-3-2-3-3-3-2-3-3-3-2-3-3-3-2-3-----------|
G|-------------------------------------------------|
D|-4-------0---------------------------------------|
A|-----------------4-------4-------2-------2-------|
D|-0-----------------------------------------------|]
!30
[e|---------------------------------------0-----5-7-|
B|-3---3-3-3-2-3-3-3-2-3-3-3-2-3-3-3-2-3---7-8-----|
G|---6---------------------------------------------|
D|-4-----------------------------------------------|
A|-0-------0---------------------------------------|
D|-----------------5-------5-------4-------4-------|]
!31
[e|-------7-------7-------5-------5-------------0---|---2-2-2-2-2-|
B|---------------------------------------8---------|-3-3-3-3-3-3-|
G|-7-6-7---7-6-7---7-6-7---7-6-7---7-6-7---6-7---6-|---2-2-2-2-2-|
D|-------------------------------------------------|-0-----------|
A|-----------------0-------0-------0-------0-------|-------------|
D|-5-------5---------------------------------------|---0-0-0-0-0-|]
!33
[e|-3-3-3-3-3-3-|-3-3-2-2-2-2-|-0-0-0-0-0-0-|---||
B|-3-3-2-2-2-2-|-3-3-3-3-3-3-|-3-3-3-3-2-2-|-3-||
G|-0-0-2-2-2-2-|-2-2-2-2-2-2-|-0-0-2-2-2-0-|-2-||
D|-------------|---------0-0-|-------------|-4-||
A|-----0-0-0-0-|-------------|-----0-0-0-0-|---||
D|-2-2---------|-0-0-0-0-----|-5-5---------|-0-||]
!III- Allegro
!1
[e|-5-2-3-5-|-5-2-3-5-|-5-7-5-7-5-|-3-2-0-2-3-|-3-0-2-3-|-3-0-2-3-|
B|-7-3-5-7-|-7-3-5-7-|-7-8-7-8-7-|-5-3-2-3-5-|-5-2-3-5-|-5-2-3-5-|
G|---------|---------|-----------|-----------|---------|---------|
D|---------|---------|-----------|-----------|---------|---------|
A|---------|---------|-----------|-----------|---------|---------|
D|---------|---------|-----------|-----------|---------|---------|]
!7
[e|-3-5-3-5-3-|-2-0-2-3-|-5-5-5-5-5-5-|-5-5-5-5-5-5-|-3-3-3-3-3-3-|-3-3-3-3-2-2-|
B|-5-7-5-7-5-|-3-2-3-5-|-7-7-7-7-7-7-|-7-7-7-7-7-7-|-5-5-5-5-5-5-|-2-2-2-2-3-3-|
G|-----------|---------|-------------|-4-4-4-4-4-4-|-4-4-4-4-4-4-|-2-2-2-2-2-2-|
D|-----------|---------|-0-0-0-0-0-0-|-0-0-0-0-0-0-|-2-2-2-2-2-2-|---------0-0-|
A|-----------|---------|-------------|-------------|-------------|-0-0-0-0-----|
D|-----------|---------|-------------|-------------|-------------|-------------|]
!13 tr
[e|-0-0-0-0-0-0-|-2-----------|-------0-2-0---|-0-----------|-0---0-2-3-5-3-2-0-|
B|-3-3-2-2-2-2-|-------------|-3---3-------3-|-------------|-------------------|
G|-4-4-2-2-2-2-|-2-2-2-2-2-2-|---2-----------|---2-2-2-2-2-|---2---------------|
D|-5-5---------|-4-----------|-0-------------|-------------|-------------------|
A|---------0-0-|-------------|---------------|-4-----------|-0-----------------|
D|-------------|-0-----------|---------------|-------------|-------------------|]
!18
[e|-2---------0-2-3-5-2-|-0-5-4-5-0-0-2-|-0-5-4-5-0-0-2-|-0-------|-----------|
B|-----0-2-3-----------|-----------0---|-2---------0---|-2-3-2-0-|-2-3-0-----|
G|---2-----------------|-----------1---|-2---------1---|-2-------|---------2-|
D|-0-------------------|---------------|---------------|---------|-0---2-----|
A|---------------------|-0-------------|---------------|-----0---|-----------|
D|---------------------|---------------|---------------|---------|-------2---|]
!23
[e|---0-0-0-0-0-|-2-2-2-2-2-2-|-2-2-2-2-2-2-|-4-4-4-4-5-5-|-5-5-4-4-3-3-|
B|---2-2-2-2-2-|-5-5-5-5-5-5-|-3-3-3-3-3-3-|-3-3-3-3-2-2-|-3-3-3-3-3-3-|
G|-2-2-2-2-2-2-|-2-2-2-2-2-2-|-2-2-2-2-2-2-|-4-4-4-4-2-2-|-4-4-4-4-4-4-|
D|-------------|-0-0-0-0-0-0-|-0-0-0-0-0-0-|-2-2-2-2-----|-0-0-2-2-----|
A|-0-0-0-0-0-0-|-------------|-------------|---------0-0-|-------------|
D|-------------|-------------|-------------|-------------|---------2-2-|]
!28 tr tr
[e|-5---5-5-5-5-|-5---5-5-5-7-5-3-2-|-3---3-3-3-3-|-3---3-3-3-5-3-2-0-|
B|-2-----------|-------------------|-------------|-------------------|
G|-2-2---------|---2---------------|---2---------|---2---------------|
D|-------------|-------------------|-------------|-------------------|
A|-0-----------|-0-----------------|-0-----------|-0-----------------|
D|-------------|-------------------|-------------|-------------------|]
!32 tr tr tr
[e|-2---2-2-2-3-2-0---|-0---0-0-0-2-0-----|-2---2-2-2-3-2-0---|-0-----------|
B|-----------------3-|---------------3-2-|-----------------3-|-------0-----|
G|---2---------------|---2---------------|---2---------------|---2-2---5-5-|
D|-0-----------------|-------------------|-0-----------------|-------------|
A|-------------------|-0-----------------|-------------------|-0-----------|
D|-------------------|-------------------|-------------------|---------4---|]
!36
[e|-------------|---------0-0-|-0-----0-2-2-|-3-0-0-----3-|-3-0-0-------|
B|---0-0-2-3-3-|-3-2-2-3-----|---3-3-------|-------1-1---|-------1-1---|
G|-5-----------|-------------|-------------|-------------|-----------3-|
D|-------------|-------------|-------------|-2-----------|-2-----------|
A|-------------|-0-------1---|-2-------2---|-------------|-------------|
D|-5-------6---|-------------|-------------|-------------|-------------|]
!41 tr
[e|---3-2-0-----|---7-----------|---2---2-----|-----------0-|---------7-5-|
B|---------3---|-------------0-|-0---3---0-3-|-2-------2---|-3-2-0-7-----|
G|-3-------4-6-|-7---6-7-6-----|-------------|---3---3-----|-------------|
D|-4-------5---|-----4---------|-------------|-----4-------|---------0---|
A|-------------|-7-------------|-2-------2---|-1-------1---|-2-----------|
D|-------------|-----------4---|-------------|-------------|-------------|]
!46
[e|-3-0---0-5-3-|-2-0---2-3-2-|-0-----0-2-0-|---------7---|-------------|
B|-----2-------|-----3-------|---2---------|-3-2-0-7---7-|-9-6-------0-|
G|-------------|-------------|-----3-------|-------------|-----6-7-6---|
D|-2-----------|-0-----------|-------------|---------9---|-------------|
A|-----0---4---|---------2---|-4-------1---|-2-----------|-8-------8---|
D|-------------|-------------|-----4-------|-------------|-------------|]
!51
[e|---2---2---2-|---2---2---2-|---2---2---2-|---2---2---2-|---2---2---2-|
B|-------------|-0---0---0---|-2---2---2---|-3---3---3---|-------------|
G|-2---2---2---|-1-----------|-2-----------|-4-----------|-2---2---2---|
D|-4-----------|-------------|-------------|-------------|-------------|
A|-------------|-------------|-------------|-------------|-------------|
D|-------------|-------------|-------------|-------------|-4-----------|]
!56
[e|-------------|---2---2---1-|-----2-------2-------0---|
B|---7---7---7-|-2---2---2---|-------------------------|
G|-4---4---4---|-------------|---3---3---3---3---3---3-|
D|-------------|-------------|---------4-------4-------|
A|-------------|-4-------4---|-------------------------|
D|-6-----------|-------------|-4-----------------------|]
!59
[e|-------------------------|-----0-------0-----------|
B|-----4-------4-------4---|---0---0---0---0-----3---|
G|---4---4---4---4---4---4-|-------------------4---4-|
D|-------------------------|-------------------------|
A|-2-------2-------0-------|-------------------------|
E|-------------------------|-6-------6-------6-------|]
!61
[e|-------------------------|-------------------------|
B|-----2-------2-------2---|-----3-------3-------3---|
G|---2---2---2---2---2---2-|---2---2---2---2---2---2-|
D|-------------------------|-------------------------|
A|-0-------0---------------|-------------------------|
D|-----------------5-------|-4-------4-------4-------|]
!63
[e|-------------------------|-----0-------0-------0---|-----0-------0-------0---|
B|-----3-------3-------3---|---0---0---0---0---0---0-|---2---2---2---2---2---2-|
G|---4---4---4---4---4---4-|-------------------------|---------2---------------|
D|---------5---------------|---------6---------------|-------------------------|
A|-------------------------|-------------------------|-0---------------0-------|
D|-5---------------5-------|-6---------------6-------|-------------------------|]
!66
[e|-----2-------2-------2---|-----2-------2-------2---|-----3-------3-------3---|
B|---2---2---2---2---2---2-|---3---3---3---3---3---3-|---3---3---3---3---3---3-|
G|---------3---------------|---------4---------------|---------4---------------|
D|-------------------------|-------------------------|-------------------------|
A|-1---------------1-------|-2---------------2-------|-2---------------2-------|
D|-------------------------|-------------------------|-------------------------|]
!69
[e|-------------|-------------|---------0-0-|-0-----0-2-2-|-3-5-3-2-0---|
B|-2-----0-----|---0-0-2-3-3-|-3-2-2-3-----|---3-3-------|-0---------3-|
G|---2-2---5-5-|-5-----------|-------------|-------------|---------1---|
D|-------------|-------------|-------------|-------------|-2-----------|
A|-0-----------|-------------|-0-------1---|-2-------2---|-------------|
D|---------4---|-5-------6---|-------------|-------------|-------------|]
!74
[e|-------------|-------------|---------0-0-|-0-----0-2-2-|-3-5-3-2-0---|
B|-2-----0-----|---0-0-2-3-3-|-3-2-2-3-----|---3-3-------|-0---------3-|
G|---2-2---5-5-|-5-----------|-------------|-------------|---------1---|
D|-------------|-------------|-------------|-------------|-2-----------|
A|-0-----------|-------------|-0-------1---|-2-------2---|-------------|
D|---------4---|-5-------6---|-------------|-------------|-------------|]
!79 tr
[e|-------------|-----3---5-0-|-1-------------|---5-5-5-5-5-|-5-5-5-5-5-5-|
B|-2---3---5---|-6-----------|---3-2-3-2---3-|-3-7-7-7-7-7-|-7-7-7-7-7-7-|
G|---2---2---2-|---2---2-----|---0-2---------|-------------|-4-4-4-4-4-4-|
D|-----3-------|-0-----------|-0-------------|-0-0-0-0-0-0-|-0-0-0-0-0-0-|
A|-0-------4---|-----4---0---|-----------0---|-------------|-------------|
D|-------------|-------------|---------------|-------------|-------------|]
!84
[e|-3-3-3-3-3-3-|-3-----------|-3-----------|-3-----------|-1-------1-0-|
B|-5-5-5-5-5-5-|-2-------2---|-2-------2---|-2-------2---|---3-2-3-----|
G|-4-4-4-4-4-4-|-2-2-2-2---2-|-2-2-2-2---2-|-2-2-2-2---2-|-------------|
D|-2-2-2-2-2-2-|-------------|-------------|-------------|-0---0---0---|
A|-------------|-0-----------|-0-----------|-0-----------|-------------|
D|-------------|-------------|-------------|-------------|-------------|]
!89
[e|-------------|-----0-------0-------0---|-----0-------0-------0---|
B|-6-------6-5-|---6---6---6---6---6---6-|---5---5---5---5---5---5-|
G|---7-6-7-----|---------7-------7-------|---------7-------7-------|
D|-------------|-------------------------|-------------------------|
A|-------------|-------------------------|-------------------------|
D|-6---6---6---|-6-----------------------|-6-----------------------|]
!92
[e|-----0-------0-------0---|-----------0-----5-7-5-7-|-5---------0-----5-7-5---|
B|---3---3---3---3---3---3-|-----0-------7-8---------|-----0-------7-8-------8-|
G|---------4-------4-------|-6-----6-7---------------|-------6-7---------------|
D|-------------------------|---7---------------------|---7---------------------|
A|-------------------------|-0-----------------------|-0-----------------------|
D|-6-----------------------|-------------------------|-------------------------|]
!95
[e|---0-----------|---5-5-5-5-5-|-5-5-5-5-5-5-|-3-3-3-3-3-3-|-3-3-3-3-----|
B|-7---3-2-3---2-|-3-7-7-7-7-7-|-7-7-7-7-7-7-|-5-5-5-5-5-5-|-5-5-5-5-6-6-|
G|---------------|-------------|-4-4-4-4-4-4-|-4-4-4-4-4-4-|-6-6-6-6-7-7-|
D|-0---------2---|-0-0-0-0-0-0-|-0-0-0-0-0-0-|-2-2-2-2-2-2-|-------------|
A|-----------0---|-------------|-------------|-------------|-0-0-0-0-----|
D|---------------|-------------|-------------|-------------|---------6-6-|]
!100
[e|-------------|-------------|-0-0-0-0-0-0-|---2-2-2-2-2-|-0-0-0-0-0-0-|---||
B|-5-5-5-5-6-6-|-5-5-5-5-6-6-|-3-3-2-2-2-2-|-3-3-3-3-3-3-|-3-3-2-2-2-2-|-3-||
G|-6-6-6-6-7-7-|-6-6-6-6-7-7-|-4-4-2-2-2-2-|-2-2-2-2-2-2-|-4-4-2-2-2-2-|-2-||
D|---------6-6-|-7-7-7-7-7-7-|-5-5---------|-4-----------|-------------|-4-||
A|-0-0-0-0-----|---------5-5-|---------0-0-|-------------|-----0-0-0-0-|---||
D|-------------|-------------|-------------|-0-0-0-0-0-0-|-5-5---------|-0-||]
Документ
Категория
Ноты, аккорды
Просмотров
6
Размер файла
28 Кб
Теги
антонио, концерт, вивальди
1/--страниц
Пожаловаться на содержимое документа