close

Вход

Забыли?

вход по аккаунту

?

ДДТ - Вороны

код для вставкиСкачать
Любовь (1996)
Вороны
!(Ю. Шевчук)
> Em C Am7 H7
На небе вороны, под небом монахи,
> Em C Am7 H7
И я между ними в расшитой рубахе,
> C Am7 H7
Лежу на просторе, легка и пригожа,
> Em C Am7 H7 Em C Am7 H7
И солнце взрослее и ветер моложе.
Меня отпевали в громадине храма,
Была я невеста, прекрасная дама,
Душа моя рядом стояла и пела,
Но люди, не веря, смотрели на тело.
Судьба и молитва менялись местами,
Молчал мой любимый и крестное знамя
Лицо его светом едва освещало,
Простила его, ему все прощала.
Весна задрожав от печального звона,
Смахнула три капли на лики иконы,
Что мирно покоилась между руками,
Её целовало веселое пламя.
Свеча догорела, упало кадило,
Земля застонав, превращалась в могилу,
Я бросилась в небо за легкой синицей,
Теперь я на воле, я Белая Птица.
Взлетев, на прошанье кружась над родными,
Смеялась я, горе их не понимая,
Мы встретимся вскоре, но будем иными,
Есть вечная воля, зовет меня стая.
-
!(концертная версия)
> Em Cmaj7 Am7 H7+
На небе вороны, под небом монахи,
И я между ними в расшитой рубахе,
> Cmaj7 Am7 H7+
Лежу на просторе, легка и пригожа,
> Em Cmaj7 Am7 H7+
И солнце взрослее и ветер моложе.
Меня отпевают в громадине храма,
Была я невеста, прекрасная дама,
Душа моя рядом стояла и пела,
Но люди, не видя, смотрели на тело.
Судьба и молитва менялись местами,
Молчал мой любимый и крестное знамя,
Лицо его светом едва освещало,
Прости, я ему все прощала.
весна задрожав от печального звона,
Смахнула две капли на каплю иконы,
Что мирно покоилась между руками,
И я целовала веселое пламя.
Свеча догорела, упало кадило,
Земля застонав, превращалась в могилу,
Я бросилась в реку за легкой синицей,
Теперь я на воле, я Белая Птица.
взлетев на прощанье, кружась над родными,
Смеялась я, горя их не понимая,
Мы встретимся вскоре, но будем иными,
Есть вечная воля, зовет меня стая.
Переборы:< Em Cmaj7 Am7 H7+>
1|---------|---------|---------|---------|
2|---------|---------|---------|---------|
3|-----0---|-----0---|-----0---|-----0---|
4|---2---2-|---2---2-|---2---2-|---1---1-|
5|---------|-3-------|-0-------|---------|
6|-0-------|---------|---------|-2-------|
!Начиная с "весна задрожав..."
1|---------|---------|---------|---------|
2|---0-0-0-|---0-0-0-|---1-1-1-|---0-0-0-|
3|---0-0-0-|---4-4-4-|---0-0-0-|---0-0-0-|
4|---2-2-2-|---2-2-2-|---2-2-2-|---1-1-1-|
5|---------|-3-------|-0-------|---------|
6|-0-------|---------|---------|-2-------|
!Соло (как оно выглядит на гитаpе)
[1|-8-7-5-3-0--7--5-7-5--0--
--8-7-5-3-12--7--5-7-5--0--
--3--8-7-5-7--5--0--
--12--12-10-8-7--5--0-|]
!Между куплетами - куски основного соло в разном порядке.
-
[E||----------------------|----------------------|----------------------|
B||----------------------|--1----0--------------|------------1---------|
G||------------0---------|------------2----0----|-----------------2----|
D||-------2---------2----|----------------------|--2-------------------|
A||----------------------|--3-------------------|--0----0--------------|
E||--0-------------------|----------------------|----------------------|
-----------------------|----------------------|----------------------|
--0------------0-------|----------------------|--1----0--------------|
------------2-----2----|------------0---------|------------2----0----|
-------1---------------|--2--------------2----|----------------------|
-----------------------|----------------------|--3-------------------|
--2--------------------|--0----0--------------|----------------------|]
!^^^^^^^^^^^^^^^^^^^^^^^
!Это место исполняется в "рваном" ритме, последние 3 ноты более короткие.
[--0-------------------|-----------------------|----------------------|
----------------------|--0------------0-------|----------------------|
------------0---------|------------2-----2----|------------0---------|
-------2---------2----|-------1---------------|-------2---------2----|
--0-------------------|-----------------------|----------------------|
----------------------|--2--------------------|--0-------------------|
----------------------|----------------------|----------------------|
----------------------|----------------------|----------------------|
------------0---------|------------0---------|------------0---------|
-------2---------2----|-------2---------2----|-------1---------1----|
--3-------------------|--0-------------------|----------------------|
----------------------|----------------------|--2-------------------|
----------------------|----------------------|----------------------|
-------0----0----0----|-------0----0----0----|-------1----1----1----|
-------0----0----0----|-------4----4----4----|-------0----0----0----|
-------2----2----2----|-------2----2----2----|-------2----2----2----|
----------------------|--3-------------------|--0-------------------|
--0-------------------|----------------------|----------------------|
----------------------||
-------0----0----0----||
-------0----0----0----||
-------1----1----1----||
----------------------||
--2-------------------||]
Документ
Категория
Ноты, аккорды
Просмотров
6
Размер файла
5 Кб
Теги
ддт, ворон
1/--страниц
Пожаловаться на содержимое документа