close

Вход

Забыли?

вход по аккаунту

?

Гындул Мыцей - Hostropat

код для вставкиСкачать
"Cu gandul la ea..."
Hostropat
!Nu prea stiu acordurile si notele bass din intreg cyntecul. In ceea ce priveste acordurile imi pare ca e ceva de tipul:
!acordul G uneori cu "flagilette", la distortion puternic se obtine efectul dorit.
!Solo:
> E
"op-paaa..."
1|---------------10/12-12-12-10-10-8/10-8-7-5-5--4/5/7-5--|
2|-8-7/8-(5)-4/5------------------------------------------|
1|-------------10-10-10-8-7/8-5-7-7--5/7/8--7---|
2|-7-5/7-3-2/3----------------------------------|
1|-------------12-12-12-10-8/10-8--55-5/77-7/88--|... to be continued
2|-8-7/8-5-4/5-----------------------------------|
1|-10-7/8-7-5-7-5-7-5/7-----------------------|
2|----------------------8-7/8-7-5-~~~-4-5-7-5-|
! (_______?_________/ nu-s sigur ca-i corect)
!In continuare merge la trompeta solo-ul, dar iata cam cum suna el la chitara:
1|-5-7-15-15-15-15-12-11-12-12/14~~~~~~~|
2|--------------------------------------|
1|-5-7-14-14-14-14-12-11/12/11-8-7-12-7-12-7~~~~|
2|----------------------------------------------|
1|-7-12-12----12-12-12-10-8/10-7--5-88---8-10-8/10-8-7-5-|
2|-------------------------------------------------------|
! ____________?_____________/
1|----------------7-5/7-5-------------------|
2|-8-7/8-(5)-4/5----------8-7-5--4-5-5/7--5-|
! ____________?_____________/
!Gata cu solo.
!*Dar totushi, "Unde e tsara laudata despre care se cynta in aceasta piesa?"
! o Tabb-uit cu drag de Vinni, pentru toti cei din tsara asta!
Документ
Категория
Ноты, аккорды
Просмотров
14
Размер файла
2 Кб
Теги
мыцей, гындул, hostropat
1/--страниц
Пожаловаться на содержимое документа