close

Вход

Забыли?

вход по аккаунту

?

Гендель Георг Фридрих - Бурре

код для вставкиСкачать
Ѕурре
[ 0
E||-------|------------------------|--0----3---------2--0--|
B||--3----|--3----0----1--0--------|-------1----0----1-----|
G||--0----|-------0----------2--0--|-----------------------|
D||-------|--4---------0-----2-----|-----------------------|
A||-------|------------------------|--3--------------------|
E||-------|------------------------|-----------------------|
3
E|-------------------------|---------------------|--------------------0-----|
B|--3----1--0-----0--1-----|--0------------------|--0--2--3--0--2--3-----2--|
G|-------0-----2--------2--|-------0--------2----|--0-----------------2-----|
D|--4----------------0-----|----------------0----|--------4-----2-----------|
A|-------------3-----------|---------------------|--------------------------|
E|-------------------------|--3------------------|--------------------------|
6
E|-----0--2-----0--2--3--0--|--2--3--5--------------|------------------------|
B|--3-----3--3--2-----------|--3---------------2----|--3---------------3-----|
G|--------------------2-----|-------------2---------|------------------0-----|
D|--4-----------------------|--------4--------------|--0---------------------|
A|--------------------------|------------------0----|-------5--3--5----------|
E|--------------------------|-----------------------|------------------------|
9
E|------------------------|--0----3---------2--0--|-------------------------|
B|--3----0----1--0--------|-------1----0----1-----|--3----1--0-----0--1-----|
G|-------0----------2--0--|-----------------------|-------0-----2--------2--|
D|--4---------0-----2-----|-----------------------|--4----------------0-----|
A|------------------------|--3--------------------|-------------3-----------|
E|------------------------|-----------------------|-------------------------|
12
E|---------------------|--------------------0-----|-----0--2-----0--2--3--0--|
B|--0------------------|--0--2--3--0--2--3-----2--|--3-----3--3--2-----------|
G|-------0--------2----|--0-----------------2-----|--------------------2-----|
D|----------------0----|--------4-----2-----------|--4-----------------------|
A|---------------------|--------------------------|--------------------------|
E|--3------------------|--------------------------|--------------------------|
15
E|--2--3--5--------------|-------------------5----|--5-----2-----3--2--------|
B|--3---------------2----|--3---------------------|--3-----------3-----5--3--|
G|-------------2---------|------------------------|--------2-----------6-----|
D|--------4--------------|--0----------------0----|--------------------------|
A|------------------0----|-------5--3--5----------|--------------------------|
E|-----------------------|------------------------|--------------------------|
18
E|--3----7----------0----|-------0----2----3--5--|--3----0-------------|
B|--0----------0----2----|--4--------------------|----------------3----|
G|-------0---------------|--4---------2----4-----|----------------4----|
D|----------7------------|-----------------------|--2------------------|
A|-----------------------|-------3---------------|---------------------|
E|-----------------------|-----------------------|---------------------|
21
E|-----------------------|-----------------------|--0--2--3--0--2--3--5--2--|
B|--3----1--0--1----1----|--1----0-----0----3----|--------------------------|
G|-------1-----2---------|----------2--0---------|--------------------------|
D|-----------------------|--0----4---------------|--------------0-----------|
A|--2---------------0----|------------------2----|--3-----0-----------3-----|
E|-----------------------|-----------------------|--------------------------|
24
E|--3--5--7-----5--7--8--5--|--7----5--3--2--3--5--2--|--3--5--7-----5---------|
B|-----------8--------------|-------0-----3-----------|-----------8-------1----|
G|--------0-----------------|--0----------------------|--------0---------------|
D|--------------4-----0-----|-------------------0-----|--2-----------4----0----|
A|--2-----------------------|-------------------------|------------------------|
E|--------------------------|-------------------------|------------------------|
27
E|-------------------------|--------------------------|------------------------|
B|--0----------------------|--------0--------0--1-----|--0--1--3----0----------|
G|-------2--0-----0--2-----|--0--2-----0--2--------2--|--0---------------2--0--|
D|-------------4--------4--|--------------------0-----|-------------0----0-----|
A|-------2-----5-----3-----|--2-----------------------|--------2---------------|
E|--3----------------------|--------3-----2-----------|------------------------|
30
E|-----------------5----|--5----2----3--2--------|--3----7----------0----|
B|----------------------|--3---------3-----5--3--|--0----------0----2----|
G|--0-------------------|-------2----------6-----|-------0---------------|
D|-----------------0----|------------------------|----------7------------|
A|----------------------|------------------------|-----------------------|
E|--3-------------------|------------------------|-----------------------|
33
E|-------0----2----3--5--|--3----0-------------|-----------------------|
B|--4--------------------|----------------3----|--3----1--0--1----1----|
G|--4---------2----4-----|----------------4----|-------1-----2---------|
D|-----------------------|--2------------------|-----------------------|
A|-------3---------------|---------------------|--2---------------0----|
E|-----------------------|---------------------|-----------------------|
36
E|-----------------------|--0--2--3--0--2--3--5--2--|--3--5--7-----5--7--8--5--|
B|--1----0-----0----3----|--------------------------|-----------8--------------|
G|----------2--0---------|--------------------------|--------0-----------------|
D|--0----4---------------|--------------0-----------|--------------4-----0-----|
A|------------------2----|--3-----0-----------3-----|--2-----------------------|
E|-----------------------|--------------------------|--------------------------|
39
E|--7----5--3--2--3--5--2--|--3--5--7-----5---------|-------------------------|
B|-------0-----3-----------|-----------8-------1----|--0----------------------|
G|--0----------------------|--------0---------------|-------2--0-----0--2-----|
D|-------------------0-----|--2-----------4----0----|-------------4--------4--|
A|-------------------------|------------------------|-------2-----5-----3-----|
E|-------------------------|------------------------|--3----------------------|
42
E|--------------------------|------------------------|---------------||
B|--------0--------0--1-----|--0--1--3----0----------|---------------||
G|--0--2-----0--2--------2--|--0---------------2--0--|--0------------||
D|--------------------0-----|-------------0----0-----|---------------||
A|--2-----------------------|--------2---------------|---------------||
E|--------3-----2-----------|------------------------|--3------------||]
Документ
Категория
Ноты, аккорды
Просмотров
12
Размер файла
7 Кб
Теги
георг, гендель, фридрих, бурре
1/--страниц
Пожаловаться на содержимое документа