close

Вход

Забыли?

вход по аккаунту

?

Гендель Георг Фридрих - Воздух в Bb

код для вставкиСкачать
Воздух в Bb
!Тональность: <G>
!Строй: [E A D G B E]
!Размер: 3/4
[ | | | | | | | | |
|3-------2---0-----------|------------------------|------------------------|
|----------------3---1---|0---------------1-------|3-------1---0-----------|
|------------------------|0-----------------------|----------------2---0---|
|------------------------|--------4---2---0-------|------------------------|
|------------------------|--------------------3---|2---------------3-------|
|3-----------------------|------------------------|------------------------|
| | | | | | | | |
|------------------------|------------------------|------------------------|
|------------------------|------------0---1-------|0-------0---------------|
|----------------0-------|2---0---2-----------2---|------------2---0-------|
|4-----------------------|----------------0-------|--------------------4---|
|5-------3---2---0-------|------------------------|------------------------|
|--------------------3---|2-----------------------|3-----------------------|
| | | | | | | | |
|0-----------------------|----------------0-------|5-------0---2---3---0---|
|--------0---2---3---0---|2-----------------------|------------------------|
|----------------0-------|2---------------0-------|--------0-------2-------|
|2-----------------------|--------2---4-------2---|4-----------------------|
|------------------------|------------------------|------------------------|
|------------------------|------------------------|------------------------|
| | | | | | | | |
|2-----------------------|0---2-------------------|------------------------|
|----------------3-------|--------2-3-2-------3---|3-----------------------|
|--------2---------------|0-----------------------|2-----------------------|
|0-----------------------|--------2---------------|--------4-------0-------|
|--------4-------2-------|------------------------|------------------------|
|------------------------|------------------------|------------------------|
| | | | | | | | |
|3-------2---0-----------|------------------------|------------------------|
|----------------3---1---|0---------------1-------|3-------1---0-----------|
|------------------------|0-----------------------|----------------2---0---|
|------------------------|--------4---2---0-------|------------------------|
|------------------------|--------------------3---|2---------------3-------|
|3-----------------------|------------------------|------------------------|
| | | | | | | | |
|------------------------|------------------------|------------------------|
|------------------------|------------0---1-------|0-------0---------------|
|----------------0-------|2---0---2-----------2---|------------2---0-------|
|4-----------------------|----------------0-------|--------------------4---|
|5-------3---2---0-------|------------------------|------------------------|
|--------------------3---|2-----------------------|3-----------------------|
| | | | | | | | |
|0-----------------------|----------------0-------|5-------0---2---3---0---|
|--------0---2---3---0---|2-----------------------|------------------------|
|----------------0-------|2---------------0-------|--------0-------2-------|
|2-----------------------|--------2---4-------2---|4-----------------------|
|------------------------|------------------------|------------------------|
|------------------------|------------------------|------------------------|
| | | | | | | | |
|2-----------------------|0---2-------------------|------------------------|
|----------------3-------|--------2-3-2-------3---|3-----------------------|
|--------2---------------|0-----------------------|2-----------------------|
|0-----------------------|--------2---------------|--------4-------0-------|
|--------4-------2-------|------------------------|------------------------|
|------------------------|------------------------|------------------------|
| | | | | | | | |
|------------------------|------------------------|------------------------|
|3-------2---0-----------|------------------------|------------0---1-------|
|----------------2---0---|----------------0-------|2---0---2-----------2---|
|0-----------------------|4-----------------------|----------------0-------|
|------------------------|5-------4---2---0-------|------------------------|
|------------------------|--------------------3---|2-----------------------|
| | | | | | | | |
|------------------------|3-------2---0-----------|--------0---------------|
|0-------0---------------|----------------4---2---|0---------------4-------|
|------------2---0-------|----------------2-------|0-----------------------|
|--------------------4---|2-----------------------|----------------4-------|
|------------------------|------------------------|------------------------|
|3-----------------------|------------------------|------------------------|
| | | | | | | | |
|3---2---2-3-2-------0---|0-----------------------|0-----------------------|
|--------4-------0-------|------------------------|----3---1---0-----------|
|------------------------|--------0---------------|----------------2---0---|
|2-----------------------|2-----------4---2---0---|--------0-------2-------|
|------------------------|------------------------|3-----------------------|
|------------------------|------------------------|------------------------|
| | | | | | | | |
|------------------------|------------------------|0---------------2-------|
|------------------------|3-------0---1---3---0---|------------------------|
|----------------0-------|------------------------|------------------------|
|4-------4---2---0-------|------------------------|------------------------|
|5-------------------3---|2---------------2-------|3-------3---2---0-------|
|------------------------|--------3---------------|------------------------|
| | | | | | | | |
|3---2---0---------------|0-----------------------|5-------2-3-2---3-------|
|------------3---1---0---|----3---1---0-----------|------------------------|
|------------------------|----------------2---0---|------------------------|
|------------------------|--------0-------2-------|--------0---------------|
|2---------------2-------|3-----------------------|3-----------------------|
|--------3---------------|------------------------|------------------------|
| | | | | | | | |
|------------------------|------------------------|------------------------|
|0-----------------------|3-------2---0-----------|------------------------|
|------------------------|----------------2---0---|----------------0-------|
|----------------0-------|0-----------------------|4-----------------------|
|--------2---------------|------------------------|5-------4---2---0-------|
|3-----------------------|------------------------|--------------------3---|
| | | | | | | | |
|------------------------|------------------------|3-------2---0-----------|
|------------0---1-------|0-------0---------------|----------------4---2---|
|2---0---2-----------2---|------------2---0-------|----------------2-------|
|----------------0-------|--------------------4---|2-----------------------|
|------------------------|------------------------|------------------------|
|2-----------------------|3-----------------------|------------------------|
| | | | | | | | |
|--------0---------------|3---2---2-3-2-------0---|0-----------------------|
|0---------------4-------|--------4-------0-------|------------------------|
|0-----------------------|------------------------|--------0---------------|
|----------------4-------|2-----------------------|2-----------4---2---0---|
|------------------------|------------------------|------------------------|
|------------------------|------------------------|------------------------|
| | | | | | | | |
|0-----------------------|------------------------|------------------------|
|----3---1---0-----------|------------------------|3-------0---1---3---0---|
|----------------2---0---|----------------0-------|------------------------|
|--------0-------2-------|4-------4---2---0-------|------------------------|
|3-----------------------|5-------------------3---|2---------------2-------|
|------------------------|------------------------|--------3---------------|
| | | | | | | | |
|0---------------2-------|3---2---0---------------|0-----------------------|
|------------------------|------------3---1---0---|----3---1---0-----------|
|------------------------|------------------------|----------------2---0---|
|------------------------|------------------------|--------0-------2-------|
|3-------3---2---0-------|2---------------2-------|3-----------------------|
|------------------------|--------3---------------|------------------------|
| | | | | | | | |
|5-------2-3-2---3-------|------------------------|-----------------------||
|------------------------|0-----------------------|-----------------------||
|------------------------|------------------------|-----------------------||
|--------0---------------|------------------------|-----------------------||
|3-----------------------|------------------------|-----------------------||
|------------------------|3-----------------------|-----------------------||]
Документ
Категория
Ноты, аккорды
Просмотров
14
Размер файла
10 Кб
Теги
воздух, георг, гендель, фридрих
1/--страниц
Пожаловаться на содержимое документа