close

Вход

Забыли?

вход по аккаунту

?

Гендель Георг Фридрих - Ларго из арии (опера Ксеркс)

код для вставкиСкачать
Ларго из арии (опера "Ксеркс")
!Строй: [DADGBE]
!Обозначения:
!H - Половинка Q - Четверть E - восьмая S - шеснадцатая
!+ - не играется но должно звучать. - нота с точкой
!Длительность мелодии указана под табом.
! < - громче
! > - тише
! | - тактовая черта
! || - конец
! () - нота звучит, но не играется
!Ритм: 64
!размер: 3/4
!В начале мягко........
! Q Q Q Q Q E. S Q Q Q Q Q E. S Q Q Q
|-----------|------------|-----------|------------|----------|
|-3---------|------------|-----------|------------|----------|
|-0---0--0--|-4--2--2--0-|-0---0--0--|-0----------|----------|
|-0---0--0--|-4--4--4----|-2---2--2--|-0--4--2--0-|-0--0--0--|
|-2---2--2--|-5--5--5----|-2---2--2--|-2--5--3----|-2--2--2--|
|-5---5--5--|-0--0--0----|-2---2--2--|----4--2----|-5--5--5--|
! H. H.
! < >
! |-3-|
! Q Q E E E Q E E Q Q Q Q Q E E Q E E Q E E Q Q Q
|-------------|-----------|-0--0--2--|-3---------|------------|------------|
|-------------|-----------|-------3--|-3----3-3--|---5-1------|------------|
|-------0-2-4-|-2----0-2--|-2--2--2--|-0--0---0--|-0---0----4-|-0--0--0----|
|-2--4--------|-4--4-2-4--|-4--4-----|-----------|-2---2--4---|-0--0--0----|
|-3--3--2-----|-5--5---5--|-3--3--3--|-2--2---2--|-3---0--5---|-2--2--2----|
|-5--4--5-----|-0------0--|----------|-----------|--------0---|------------|
! H
! <
! Q Q E. S Q Q Q Q Q Q Q E E Q Q Q Q Q E S S Q
|-------------|----------|----------|-----------|-2--2-----|------0--------|
|-------------|----------|-1--1-----|-----------|-------5--|-4------4-5----|
|-0-----------|----------|-0--2--4--|-2----0-0--|-5--5--4--|-2--2-----0----|
|-----4--2--0-|-0--0--0--|-2--0--0--|-2--0---0--|-4--4--2--|-1--1-----2----|
|-3---3--3----|-2--2--2--|----------|-3--3---2--|-0--0-----|----2-----3----|
|-5---4--2----|-5--5--5--|-2--4--5--|-----------|-------5--|-4-------------|
! Q.
! 3/4
! E E Q E E Q Q Q Q E E Q E. S Q Q +Q Q E. S
|------------|----------|-----------|---------0--|-(0)----------|
|------------|----1-----|-1---------|------------|------3--1--0-|
|-5-2--------|----2--0--|----4-2-4--|-2--0-2--2--|-(2)--0--2----|
|-2---4--1-2-|-2--2--2--|-4--0---0--|-4--2-4--4--|-(4)--0--4----|
|-0---7--2---|-2--0--0--|----5---5--|-5----5--3--|-(3)--2-------|
|-----4--4---|-2--------|-0--5---5--|-0----------|---------0----|
! H.=H
! 3/4
! < <
! Q Q Q Q Q Q Q E. S Q E E Q E E Q E E Q E E Q E E
|----------|-3--3--2--|------------|------------|-----------|-----------2-|
|-------3--|-3--3--3--|-7--5--3-3--|-3-2-2----2-|-3----5-3--|-1-0-------3-|
|-4--0-----|-0--0--0--|-5--5-------|-----0--0---|--------0--|-0---2-----2-|
|----0--4--|-0--0--0--|-5--5----4--|-5---2--2---|-4--4------|-2---0--4----|
|-5-----0--|-2--2--2--|-3--3----0--|-0---0--0---|-0--3---2--|--------5----|
|-5-----0--|----------|---------0--|------------|-0---------|-2---4--0----|
! Q=64
! |-3-|
! Q E E Q +H. E E E Q E. S H. +H Q
|-3--(3)-(3)-(3)--|-(3)------|---------------|---------|-------------||
|-3---1---0---1---|-(1)------|---------------|---------|-------------||
|-0--(0)-(0)-(0)--|-(0)------|-2-4-5-4--2--0-|-0-------|-(0)---------||
|-2--(2)-(2)-(2)--|-(2)------|-2-----4--4----|---------|-------------||
|-----------------|----------|-3-----5--0----|-2-------|-(2)---------||
|-2--(2)-(2)-(2)--|-(2)------|-------0--0----|-5-------|-(5)---------||
Документ
Категория
Ноты, аккорды
Просмотров
14
Размер файла
4 Кб
Теги
операц, георг, гендель, фридрих, арии, ларго, ксеркс
1/--страниц
Пожаловаться на содержимое документа