close

Вход

Забыли?

вход по аккаунту

?

Гендель Георг Фридрих - Сонатина в A - Аллегретто

код для вставкиСкачать
Сонатина в A - Аллегретто
!Размер: 4/4
!Allegretto.
! , . , . , . , . , . , . , . , . , . , . , . , .
||-------0---------|-------0-------------|-----------0-2-------|
||---------2-0-2---|-0-----------------0-|---------------3---3-|
||---2-1---------2-|---------2h4p2-1-2---|-1h2p1-----------4---|
||-------2---------|---------------------|-2-----0-2---0-------|
||-0-------0-------|-------------------2-|-----------4-------2-|
||---------------2-|-4-2-4-0-2-----------|---------------------|
! , . , . , . , . , . , . , . , . , . , . , . , .
|-0---------------|---0---0---0---0-|---0---0-----------|
|---2---2-3-0---0-|-2---0-----------|-------------------|
|-----2-------1---|-----1---2---1---|-------------------|
|-----------------|---------4---2---|-4---2---4h6-7---6-|
|-4-----0-2-------|-0---------------|-5---4---5-----7---|
|---------------4-|-----------------|---------------0---|
! , . , . , . , . , . , . , . , . , . , . , . , .
|---------------0-|-------0-5-2---7-|-------7---7---7-|
|-----------------|-2-----------0---|-9---------------|
|-------6-7-------|---2-------------|---------6---8---|
|-7---------9-----|-----2-----------|-----6-----------|
|-----4-------7---|-0-4-----------6-|-7-9-----0-------|
|-5-7---5-7-----4-|-------4-2-------|-------4-----7---|
! , . , . , . , . , . , . , . , . , . , . , . , .
|---5-4-2-4---5-2h4p2-----|-0---------------|-----------------|
|-5---------------------5-|-------------2---|---------0-2-3-0-|
|-----------2---4---------|-----1---2-4---2-|-----------------|
|-------------------------|-2-4---2---------|-4---4-0-------0-|
|-4-----0-2-----------2---|---------4-----4-|-5-7-----2-------|
|-------------------------|-----------------|-----------------|
! , . , . , . , . , . , . , . , . , . , . , . , .
|-------------0---|-----------2-0---------|-------0-2-----4-|
|---------2-3---2-|---------3-----3-2-0---|-----------3-----|
|-1-----1---------|-2-----2-------------2-|-1-----------4---|
|---------------2-|-------------------0---|-2-0-2---0-----2-|
|---------4-------|-----0---2-------------|-------4---------|
|-0-2-4-0---------|-2-4---2---------------|-----------------|
! , . , . , . , . , . , . , . , .
|-5-----------------------|-----------------|
|-------3-2-0-------------|-----------------|
|---2-2-------2-1h2p1---2-|-2-----1---2---2-|
|-4---------0---2---------|---------4---2---|
|---------0---------------|-0-2-4-0-5---4---|
|-------4-------------0---|-----------------|
! , . , . , . , . , . , . , . , .
|-------------------|-----------------||
|-------3-2---0-----|-----------------||
|---1-2-----------2-|-2---------------||
|-0-----4-2-0-2-----|-2---------------||
|-2---0-------------|-4---------------||
|---------------0---|-5---------------||
Документ
Категория
Ноты, аккорды
Просмотров
29
Размер файла
3 Кб
Теги
аллегретто, георг, гендель, фридрих, сонатина
1/--страниц
Пожаловаться на содержимое документа