close

Вход

Забыли?

вход по аккаунту

?

Гражданская оборона - Евангелие от Егора

код для вставкиСкачать
Сто Лет Одиночества (1993) (Егор и опизденевшие)
ЕВАНГЕЛИЕ
!Музыка и слова - Е.Летов
!Bass
!|4|0-2-2--|| -- пару раз для вступления,
!потом вот так на протяжении всей песни
|4|2-2--0-7-7--0-5-5--0-7-5-3-5||
>Hm D Em F#
Зоркие окна.
> Hm D Em F#
Кто согреет зоркие окна?..
>C Hm F# Hm
Пожалей беззвучными словами
>C Hm F# Hm
Своего оловянного Христа.
>Hm D Hm F#
>Hm D Em F#
Жадные пальцы.
Кто накормит жадные пальцы?..
Обними голодными руками
Своего неспасенного Христа.
Беглые тени.
Кто поймает беглые тени?..
Спеленай надежными цепями
Своего безнадежного Христа.
Скользкие вены.
Скользкие тревожные вены...
Поцелуй холодными губами
Своего зазеркального Христа.
Круглое небо.
Кто накажет круглое небо?..
Задуши послушными руками
Своего непослушного Христа.
-
!Вступление 1
!Бас
3|--0-2-2---0-2-2---0-2-2---0-2-2---0-2-2---0-2-2---0-2-2---0-2-2
!Акустика
E|------------------------------------2---------------2----------
B|------------------------------------3---------------3----------
G|------------------------------------4---------------4----------
!Вступление 2
!Бас
3|--2-3-2---3-5-3---5-7-5---7-9-7-5-3-2--
!Акустика
E|----2-------2-----2-2-------2-----2----
B|---------------------------------------
G|--4-------4---------------4-----4------
!Бас
3|--2-3-3---3-5-5---5-7-7---7-9-7-5-3-2--
!Акустика
E|----2-------2-----2-2-------2-----2----
B|---------------------------------------
G|--4-------4---------------4-----4------
!Бас
3|--2-3-3---3-5-5---5-7-7---7-9-7-5-3-2--
!Акустика
E|----2-------3-------0-------2----------
B|------3-------3---------------2--------
G|--4-------3-------2-------3------------
!Куплет 1
!Бас
3|--2-3-3---3-5-5---5-7-7---7-9-7-5-3-2--
!Акустика
E|----2-------3-------0-------2----------
B|------3-------3---------------2--------
G|--4-------3-------2-------3------------
Зо-рь-кие о-окна Кто согреет
!Бас
3|--2-3-2---3-5-3---5-7-5---7-9-7-5-3-2--
!Акустика
E|----2-------3-------0-------2----------
B|------3-------3---------------2--------
G|--4-------3-------2-------3------------
Зо-рь-кие о-окна
!Бас
3|--2---3---2---1---2--1--2--1--2--1
!Акустика
E|----2-------2-----2-2-------2-----2----
B|---------------------------------------
G|--4-------4---------------4-----4------
По-жа-лей беззвучными сло-ва-а-ми
E|----2-------2-----2-2-------2-----2----
B|---------------------------------------
G|--4-------4---------------4-----4------
Сво-о-е-е-го оловянного Христа
!Припев:
!Бас
3|--2-3-3---3-5-5---5-7-7---7-9-7-5-3-2--
!Акустика
E|----2-------3-------0-------2----------
B|------3-------3---------------2--------
G|--4-------3-------2-------3------------
Да-да-да-да-дай Да-да-да-да-дай
!Дальше все по аналогии
-
!Вариант для чайников: <Am С Dm E>
Документ
Категория
Ноты, аккорды
Просмотров
9
Размер файла
3 Кб
Теги
егор, евангелии, гражданская, оборона
1/--страниц
Пожаловаться на содержимое документа