close

Вход

Забыли?

вход по аккаунту

?

Гражданская оборона - Жека уже в Гамбурге

код для вставкиСкачать
ѕрыг —кок
∆ека уже в √амбурге
јвтор:≈гор Ћетов
>G F# Hm F#
> Hm
1)[E!-----------------------------
H!-----------------------------
G!-----------------------------
D!-------2-4-4-2---------------
A!-2-2-5---------5-2-2-5-2---2-
E!-------------------------5---
> Em Hm
2)E---------------------------------
H---------------------------------
G-------2-4-4-2-------------------
D-2-2-5---------5-2---------------
A-------------------5-2-2-5-2---2-
E-----------------------------5---
> G
3)E--------------
H-----3-5^-3---
G-4-4--------4-
D--------------
A--------------
E--------------
> F#
4)E-----------3-2-
H-----2-3-5-----
G-3-3-----------
> D
5)E---5---7---5---7---5---7---5---7-!
H-3---3---3---3---3---3---3---3---!]
!ћелоди¤ повтор¤етс¤ 4 раза,
!причем первые 2 часть 4 играетс¤ как показано
!выше, а последние 2:
[E----------------
H------2-3-5-3-2-
G-3-3------------]
!5^ обозначает бенд на 5-м ладу.
!ƒл¤ тех кто не умеет его делать советую
!играть часть 3 следующим образом:
[E-----------------
H-----3-5-7-5-3---
G-4-4-----------4-]
Документ
Категория
Ноты, аккорды
Просмотров
4
Размер файла
1 Кб
Теги
жека, гамбурге, гражданская, оборона
1/--страниц
Пожаловаться на содержимое документа