close

Вход

Забыли?

вход по аккаунту

?

Гражданская оборона - Слепите мне маску

код для вставкиСкачать
Хорошо (1987)
СЛЕПИТЕ МНЕ МАСКУ
>Am Dm E
О слепите мне маску от доносчивых глаз
Чтобы спрятать святое лицо моё
Чтобы детство моё не смешалось в навоз
Чтобы свиньи не жрали мою беззащитность
>Em G C H
Будет очень больно
Будет очень больно
Будет так трагично
>Em G A H
Будет так подавно
О купите мне чёрные слепые очки
И заткните мне рожу правдивой газетой
Чтобы я не увидел, чтобы я промолчал
Чтобы было беззвучно, темно и смешно
О постройте мне дом, чтоб похож был на гроб
Чтобы не было окон и каких-то дверей
Чтобы был только страшный сырой потолок
Чтобы был грязный пол на котором лежать
-
> Am Dm Em
О слепите мне маску от доносчивых глаз
Чтобы спрятать святое лицо мое
Чтобы детство мое не смешалось в навоз
Чтобы свиньи не жрали мою беззащитность
>E G C H
Будет очень больно
Будет очень больно
Будет так трагично
>E G A H
Будет так подавно
О купите мне черные слепые очки
И заткните мне рожу правдивой газетой
Чтобы я не увидел, чтобы я промолчал
Чтобы было беззвучно, темно и смешно
О постройте мне дом, чтоб похож был на гроб
Чтобы не было окон и каких-то дверей
Чтобы был только страшный сырой потолок
Чтобы был грязный пол на котором лежать.
-
Вступление:<Dm B G A Dm B G A A>
>Dm B F
(1)О слепите мне маску от доносчивых глаз
>Gm A Dm
Чтобы спрятать святое лицо мое
Чтобы детство мое не смешалось в навоз
Чтобы свиньи не жрали мою беззащитность
> Dm B Gm A
Припев:Будет очень больно
> Dm B Gm F
Будет очень больно
Будет так трагично
Будет так подавно
Проигрыш:<Dm B G A Dm B G A A>
(2)О купите мне черные слепые очки
И заткните мне рожу правдивой газетой
Чтобы я не увидел, чтобы я промолчал
Чтобы было беззвучно, темно и смешно
!Припев
Проигрыш:<Dm B G A Dm B G A A>
(3)О постройте мне дом, чтоб похож был на гроб
Чтобы не было окон и каких-то дверей
Чтобы был только страшный сырой потолок
Чтобы был грязный пол на котором лежать.
!Припев } 2 раза
!Bass
[---------------------------------------------------------------------
--------------------------------------------------------------------- 5-5-5-5-5-5- - - -
- - - - - - - - - - - - - -- - - - - - - - - - - - - - - - - 6-6-6-6-6-6-
1-1-1-1-1-1-1-1-1-1-1- 3-3-3-3-3-3-5-5-5-5-
---------------------------------------------------------------------
---------------------------------------------------------------------
----5-5-5-5-5-5-5-5-5-5-5--------------------------------------------
5-5------------------------------------------------------------------]
!Bass for chorus
[---------------------------------------------------------------------
---------------------------------------------------------------------
5-5---------------5-5------------------------------------------------
----6-6---3---5-------6-6---3----1-----------------------------------]
-
>Am Dm C
О слепите мне маску доносчивах глаз
>Dm E Am
Чтобы спрятать святое лицо мое
Чтобы детство мое не смешалось в навоз
Чтобы свитьи не жрали мою беззащитность
Будет очень больно, будет очень больно
Будет так трагично будет так подавно
О купите мне черные слепые очки
И заткните мне рожу правдивой газетой
Чтобы я не услышал чтобы я промолчал,
Чтобы было беззвучно темно и смешно
Будет очень больно, будет также больно
Будет так трагично будет так подавно
О постройте мне дом, чтоб похож на гроб
Чтобы не было окон и каких-то дверей
Чтобы был только страшный сырой потолок
Чтобы был грязный пол на котором лежать
Будет очень больно, будет очень больно
Будет так трагично будет так подавно
Документ
Категория
Ноты, аккорды
Просмотров
15
Размер файла
4 Кб
Теги
маска, гражданская, слепите, оборона
1/--страниц
Пожаловаться на содержимое документа