close

Вход

Забыли?

вход по аккаунту

?

Григ Эдвард - В пещере горного короля

код для вставкиСкачать
В пещере горного короля
[------------------------------
------------------------------
------------------------------
---------4---4--3---3--2---2--
---4-5-7---5------4------3----
--7---------------------------
------------------------------
------------------------------
---------------4--------------
---------4---4---7-4---4-7----
---4-5-7---5---------5--------
--7---------------------------
------------------------------
------------------------------
----------6---6--5---5--4---4-
----6-7-9---7------6------5---
--9---------------------------
------------------------------
------------------------------
---------------6---6----------
---------6---6---7---9--------
---6-7-9---7------------------
--9---------------------------
------------------------------]
-
In The Hall Of The Mountain King
|----------------|---------------|-----------------|--------------|
|----------------|---------------|-----------------|--------------|
|----------------|---------------|-----------------|--------------|
|----------------|---------------|---------------2-|-0-------0----|
|-------0-2---2--|-1---1--0---0--|-------0-2---2---|---2---2------|
|-0-2-3-----3----|---2------1----|-0-2-3-----3-----|-----3--------|
[E|----------------|--------------|---------------0-|-----------|
B|----------------|--------------|-----------------|-3-------3-|
G|-------2-4---4--|-3---3--2---2-|-------2-4---4---|---4-0-4---|
D|-2-4-5-----5----|---4------3---|-2-4-5-----5---2-|-0-------0-|
A|-------0-2---2--|-1---1--0---0-|-------0-2---2---|---2---2---|
E|-0-2-3-----3----|---2------1---|-0-2-3-----3-----|-----3-----|
E|----------------|---------------|----------------|-----------|
B|----------------|---------------|----------------|-----------|
G|----------------|---------------|----------------|-----------|
D|---------4---4--|-5---5--4---4--|---------4---4--|-5---5--4--|
A|---4-6-7---6----|---6------6----|---4-6-7---6----|---6-------|
E|-7--------------|---------------|-7--------------|-----------|]
|----------------|-----------------|----------------|-----------------|
|-0-2-4-5-7-4-7--|--8-4--8--7-4-7--|-0-2-4-5-7-4-7--|--8-4--8--7------|
|----------------|-----------------|----------------|-----------------|
|----------------|-----------------|----------------|-----------------|
|-2-4-6-7-9-6-9--|-10-6-10--9-6-9--|-2-4-6-7-9-6-9--|-10-6-10--9---9\-|
|----------------|-----------------|----------------|-----------------|
|----------------|---------------|---------------0-|--------------|
|----------------|---------------|-----------------|-3-------3----|
|----------------|---------------|-------2-4---4---|---4-0-4------|
|-2--------------|---------------|-2-4-5-----5---2-|-0-------0----|
|-------0-2---2--|-1---1--0---0--|-------0-2---2---|---2---2------|
|-0-2-3-----3----|---2------1----|-0-2-3-----3-----|-----3--------|
|----------------|---------------|---------------0-|-------0-------|
|----------------|---------------|-----------------|-0---0---------|
|----------------|---------------|-----0-2-4-0-4---|---0-----------|
|-2--------------|---------------|-2-4-2---0-------|-0-------0-----|
|-------0-2---2--|-1---1--0---0--|-------------2---|-2---0---------|
|-0-2-3-----3----|---2------1----|-0---------------|---------3---2-|
||-----------------|---------------|---------------0-|-----------------||
||o----------------|---------------|-----------------|-3-0---0-3------o||
||------0-2-4p0-4--|-3---3--2---2--|-----0-2-4p0-4---|-----0-----------||
||--2-4------------|---4------3----|-2-4---------2---|-----0-------0---||
||o-------------2--|-----1------0--|-----2-----------|----------------o||
||--0-------0------|-0------0------|-0-------0-------|-3-------3-------||
! Q=125
||-----------------------|---------------------|
||o---------10-12----12--|-11----11--10----10--|
||--9-11-12-------12-----|----11--------10-----|
||--------9-----------9--|--------8---------7--|
||o----------------------|---------------------|
||--0-----------0--------|--0---------0--------|
|---------------------12-|-10----------10---------||
|---------10-12----12----|----12----12-----------o||
|-9-11-12-------12-------|-------12---------------||
|-------9-----------9----|------------------------||
|------------------------|-10----10----10---10\--o||
|-0-----------0----------|------------------------||
! Q=136
|---------2---2--|-3---3--2---2--|---------2---2--|-3---3--2-----|
|---2-4-5---4----|---4------4----|---2-4-5---4----|---4----4-----|
|-4--------------|---------------|-4--------------|-----4--4-----|
|-----4-------4--|-----5------4--|-----4-------4--|-----5------4-|
|-2-------2------|--------2------|-2-------2------|--------2-----|
|----------------|-3-------------|----------------|-3------------|
! Q=140 Q=142 Q=145
|---------2---2--|-4---4--2---2--|---------2---2--|-4---4---7----|
|---2-4-5---4-4--|---4-4----4-4--|---2-4-5---4-4--|---4-4-7-7----|
|-4---4-------4--|-----5------4--|-4---4-------4--|-----5---8----|
|-----4-------4--|-----6------4--|-----4-------4--|-----6---7----|
|-2-------2------|--------2------|-2-------2------|---------9----|
|----------------|-4-------------|----------------|-4-----7-7----|
! Q=151
||--12--------------------|---------------------|
||o-12-------10-12----12--|-11----11--10----10--|
||---9-11-12-------12-----|----11--------10-----|
||---9-----------------9--|--------8---------7--|
||o-10--------------------|---------------------|
||---0-----------0--------|--0---------0--------|
|---------------------12-|-10----------10---------||
|---------10-12----12----|----12----12-----------o||
|-9-11-12-------12-------|-------12---------------||
|-------9-----------9----|------------------------||
|------------------------|-10----10----10---10\--o||
|-0-----------0----------|------------------------||
! Q=161
||-----------------|---------------|---------------0-|-------0-----0---||
||o----------------|---------------|-------------0---|-0---0-------0--o||
||------0-2-4-0-4--|-3---3--2---2--|-----0-2-4-0-----|---0---------0---||
||--2-4------------|---4------3----|-2-4---------2---|-----2---2-------||
||o-----2-------2--|-----1------0--|-----2-----------|----------------o||
||--0-------0------|-0------0------|-0-------0-------|-0-------0-------||
! Q=162 Q=200
|----12------|----12------|-----------7---7-12-|-11---11-14-12----|
|----11------|----12------|------8-10---8------|----7-------------|
|----12------|-----9------|-9-11---------------|------------------|
|----11------|-----9------|--------------------|------------------|
|------------|------------|--------------------|------------------|
|-0----------|-0----------|-8---------7--------|--7---------12----|
! Q=162 Q=200
|----12------|----12------|-------------------|----------0----|
|----11------|----12------|-0-0--0-0-0--0-0-0-|-0-0-0--0------|
|----12------|-----9------|-----------------9-|-8---8-11-9----|
|----11------|-----9------|--------7-9----9---|---9-----------|
|------------|------------|-7-9-10-----10-----|---------------|
|-0----------|-0----------|-------------------|---------------|
! Q=162 Q=200
|----12------|----12------|----12--12--12--|-12--12--12--12--|
|----11------|----11------|----11--11--11--|-11--11--11--11--|
|----12------|----12------|----12--12--12--|-12--12--12--12--|
|----11------|----11------|----11--11--11--|-11--11--11--11--|
|------------|------------|----------------|-----------------|
|-0----------|-0----------|-0--------------|-----------------|
|-(12)--------|-(12)-------12\-|----12----*|
|-(11)--------|-(11)-----------|----12----*|
|-(12)--------|-(12)-----------|-----9----*|
|-(11)--------|-(11)-----------|-----9----*|
|-------------|----------------|----10----*|
|-------------|----------------|-0---0----*|
-
!Обозначения:
!/ - слайд
!p - пулл
!Размер 4/4. Сначало играть тихо и медленно, а за тем постепенно быстрее и громче
||------------------|------------------|------------------|------------------|
||------------------|------------------|------------------|------------------|
||------------------|------------------|------------------|------------------|
||------------------|------------------|---------------2--|-0-------0--------|
||-------0-2---2----|-1---1---0---1----|-------0-2---2----|---2---2----------|
||-0-2-3-----3------|---2-------1------|-0-2-3-----3------|-----3------------|
|------------------|------------------|---------------0--|------------------|
|------------------|------------------|------------------|-3-------3--------|
|-------2-4---4----|-3---3---2---2----|-------2-4---4----|---4-0-4----------|
|-2-4-5-----5------|---4-------3------|-2-4-5-----5---2--|-0-------0--------|
|-------0-2---2----|-1---1---0---1----|-------0-2---2----|---2---2----------|
|-0-2-3-----3------|---2-------1------|-0-2-3-----3------|-----3------------|
|------------------|------------------|------------------|------------------|
|------------------|------------------|------------------|------------------|
|-4----------------|------------------|------------------|------------------|
|---------4---4----|-5---5---4---4----|---------4---4----|-5---5---4--------|
|-2-4-6-7---6------|---6-------6------|---4-6-7---6------|---6--------------|
|------------------|------------------|-7----------------|------------------|
|-----------------|--------------------|-----------------|-------------------|
|-0-2-4-5-7-4-7---|--8--4--8---7-4-7---|-0-2-4-5-7-4-7---|--8--4--8---7------|
|-----------------|--------------------|-----------------|-------------------|
|-----------------|--------------------|-----------------|-------------------|
|-2-4-6-7-9-6-9---|-10--6-10---9-6-9---|-2-4-6-7-9-6-9---|-10--6-10---9---9\-|
|-----------------|--------------------|-----------------|-------------------|
|------------------|------------------|---------------0--|------------------|
|------------------|------------------|------------------|-3-------3--------|
|------------------|------------------|-------2-4---4----|---4-0-4----------|
|-2----------------|------------------|-2-4-5-----5---2--|-0-------0--------|
|-------0-2---2----|-1---1---0---1----|-------0-2---2----|---2---2----------|
|-0-2-3-----3------|---2-------1------|-0-2-3-----3------|-----3------------|
|------------------|------------------|---------------0--|-------0----------||
|------------------|------------------|------------------|-0---0------------||
|------------------|------------------|-----0-2-4-0-4----|---0--------------||
|-2----------------|------------------|-2-4-2---0--------|-0-------0--------||
|-------0-2---2----|-1---1---0---1----|-------------3----|-2---0------------||
|-0-2-3-----3------|---2-------1------|-0----------------|---------3---2----||
||------------------|------------------|---------------0--|------------------|
||------------------|------------------|------------------|-3-0---0-3--------|
||-----0-2-4p0-4----|-3---3---2---2----|-----0-2-4p0-4----|-----0------------|
||-2-4--------------|---4-------3------|-2-4---------2----|-----0-------0----|
||-------------2----|-----1-------0----|-----2------------|------------------|
||-0-------0--------|-0-------0--------|-0-------0--------|-3-------3--------|
|------------------------|-------------------------|---------------------12-|
|---------10-12----12----|-11----11----10----10----|---------10-12----12----|
|-9-11-12-------12-------|----11----------10-------|-9-11-12-------12-------|
|-------9-----------9----|--------8-----------7----|-------9-----------9----|
|------------------------|-------------------------|------------------------|
|-0-----------0----------|--0-----------0----------|-0-----------0----------|
|-10----------10-------|---------2---2---|-3---3---2---2---|---------4---4---|
|----12----12----------|---2-4-5---4-----|---4-------4-----|---2-4-5---2-----|
|-------12-------------|-4---------------|-----------------|-4---------------|
|----------------------|-----4-------4---|-----5-------4---|-----4-------4---|
|-10----10----10---10\-|-2-------2-------|---------2-------|-2-------2-------|
|----------------------|-----------------|-3---------------|-----------------|
|---------2---2----|-3---3---2--------|---------2---2----|-4---4---2---2----|
|---2-4-5---4------|---4-----4--------|---2-4-5---4-4----|---4-4-----4-4----|
|-4----------------|-----4---4--------|-4---4-------4----|-----5-------4----|
|-----4-------4----|-----5-------4----|-----4-------4----|-----6-------4----|
|-2-------2--------|---------2--------|-2-------2--------|---------2--------|
|------------------|-3----------------|------------------|-4----------------|
! > >
|---------2---2----|-4---4-------7----|-12-----------------------|
|---2-4-5---4-4----|---4-4---7---7----|-12-------10-12----12-----|
|-4---4-------4----|-----5-------8----|--9-11-12-------10--------|
|-----4-------4----|-----6-------7----|--9-----------------9-----|
|-2-------2--------|-------------9----|-10-----------------------|
|------------------|-4-------7---7----|--0-----------0-----------|
|-------------------------|---------------------12-|-10----------10----------|
|-11----11----10----10----|---------10-12----12----|----12----12-------------|
|----11----------10-------|-9-11-12-------12-------|-------12----------------|
|--------8-----------7----|-------9-----------9----|-------------------------|
|-------------------------|------------------------|-10----10----10----10\---|
|--0-----------0----------|-0-----------0----------|-------------------------|
|------------------|------------------|---------------0--|-------0-----0----||
|------------------|------------------|-------------0----|-0---0-------0----||
|-----0-2-4-0-4----|-3---3---2---2----|-----0-2-4-0------|---0---------0----||
|-2-4--------------|---4-------3------|-2-4---------2----|-----2---2--------||
|-----2-------2----|-----1-------0----|-----2------------|------------------||
|-0-------0--------|-0-------0--------|-0-------0--------|-0-------0--------||
! > >
||----12-----------|----12------------|-----------7---7-12-|-11---11s14-12----|
||----11-----------|----12------------|------8-10---8------|----7-------------|
||----12-----------|-----9------------|-9-11---------------|------------------|
||----11-----------|-----9------------|--------------------|------------------|
||-----------------|------------------|--------------------|------------------|
||-0---------------|-0----------------|-8---------7--------|--7---------12----|
! > >
|----12-----------|----12------------|--------------------|----------0------|
|----11-----------|----12------------|--0-0--0-0-0--0-0-0-|--0-0-0--0-------|
|----12-----------|-----9------------|-----------------9--|-8---8-11-9------|
|----11-----------|-----9------------|--------7-9----9----|---9-------------|
|-----------------|------------------|-7-9-10-----10------|-----------------|
|-0---------------|-0----------------|--------------------|-----------------|
! > > > > > > > > >
|----12-----------|----12------------|----12--12--12--|-12--12--12--12--|
|----11-----------|----11------------|----11--11--11--|-11--11--11--11--|
|----12-----------|----12------------|----12--12--12--|-12--12--12--12--|
|----11-----------|----11------------|----11--11--11--|-11--11--11--11--|
|-----------------|------------------|----------------|-----------------|
|-0---------------|-0----------------|-0--------------|-----------------|
! >
|-----------------|--------------12\-|----12----------||
|-----------------|------------------|----12----------||
|-----------------|------------------|-----9----------||
|-----------------|------------------|-----9----------||
|-----------------|------------------|----10----------||
|-----------------|------------------|-0---0----------||
-
!Тональность: <Bm>
!Размер: 4/4
|----------------------------------------------------------------|
|----------------------------------------------------------------|
|----------------------------------------------------------------|
|---------------------------------------------------------4------|
|---------------------------------------------------------4------|
|---------------------------------------------------------2------|
|----------------------------------------------------------------|
|----------------------------------------------------------------|
|-----------------------------------------------4-2-------2------|
|-------2-4---4---3---3---2---2---------2-4---4-----4---4--------|
|-2-4-5-----5-------4-------3-----2-4-5-----5---------5----------|
|----------------------------------------------------------------|
|----------------------------------------------------------------|
|----------------------------------------------------------------|
|-----------------------------------------------4-2-------2------|
|-------2-4---4---3---3---2---2---------2-4---4-----4---4--------|
|-2-4-5-----5-------4-------3-----2-4-5-----5---------5----------|
|----------------------------------------------------------------|
|----------------------------------------------------------------|
|----------------------------------------------------------------|
|----------------------------------------------------------------|
|----------------------------------------------------------------|
|-------2-4---4---5---5---4---4---------2-4---4---5---5---4------|
|-2-4-6-----6-------6-------6-----2-4-6-----6-------6------------|
|----------------------------------------------------------------|
|----------------------------------------------------------------|
|----------------------------------------------------------------|
|----------------------------------------------------------------|
|-------2-4---4---5---5---4---4---------2-4---4---5---5---4------|
|-2-4-6-----6-------6-------6-----2-4-6-----6-------6------------|
|----------------------------------------------------------------|
|----------------------------------------------------------------|
|-----------------------------------------------4-2-------2------|
|-------2-4---4---3---3---2---2---------2-4---4-----4---4--------|
|-2-4-5-----5-------4-------3-----2-4-5-----5---------5----------|
|----------------------------------------------------------------|
|----------------------------------------------------------------|
|----------------------------------------------------------------|
|-----------------------------------------------4-2-----4--------|
|-------2-4---4---3---3---2---2---------2-4---4-----4------------|
|-2-4-5-----5-------4-------3-----2-4-5-----5---------5---2------|
|----------------------------------------------------------------|
|----------------------------------------------------------------|
|----------------------------------------------------------------|
|-----------------------------------------------4-2-------2------|
|-------2-4---4---3---3---2---2---------2-4---4-----4---4--------|
|-2-4-5-----5-------4-------3-----2-4-5-----5---------5----------|
|----------------------------------------------------------------|
|-----------------------------------------------7-5-------5------|
|-------5-7---7---6---6---5---5---------5-7---7-----7---7--------|
|-4-6-7-----7-------6-------5-----4-6-7-----7---------7----------|
|----------------------------------------------------------------|
|----------------------------------------------------------------|
|----------------------------------------------------------------|
|----------------------------------------------------------------|
|---------2---2---3---3---2---2-----------2---2---3---3---2------|
|-----3-4---3-------3-------3---------3-4---3-------3------------|
|-4-6-----------------------------4-6----------------------------|
|----------------------------------------------------------------|
|----------------------------------------------------------------|
|-------7-9---9---10--10--9---9---------7-9---9---10--10--9------|
|-7-9-11----11------11------11----7-9-11----11------11-----------|
|----------------------------------------------------------------|
|----------------------------------------------------------------|
|----------------------------------------------------------------|
|----------------------------------------------------------------|
|----------------------------------------------------------------|
|----------------------------------------------------------------|
|-----------------------------------------------4-2-------2------|
|-------2-4---4---3---3---2---2---------2-4---4-----4---4--------|
|-2-4-5-----5-------4-------3-----2-4-5-----5---------5----------|
|----------------------------------------------------------------|
|-----------------------------------------------7-5-----7--------|
|-------5-7---7---6---6---7---7---------5-7---7-----7------------|
|-4-6-7-----7-------6-------7-----4-6-7-----7---------7---4------|
|----------------------------------------------------------------|
|----------------------------------------------------------------|
|----------------------------------------------------------------|
|-----------------------------------------------7-5-------5------|
|-------5-7---7---6---6---5---5---------5-7---7-----7---7--------|
|-4-6-7-----7-------6-------5-----4-6-7-----7---------7----------|
|----------------------------------------------------------------|
|----------------------------------------------------------------|
|----------------------------------------------------------------|
|-----------------------------------------------7-5-------5------|
|-------5-7---7---6---6---5---5---------5-7---7-----7---7--------|
|-4-6-7-----7-------6-------5-----4-6-7-----7---------7----------|
|----------------------------------------------------------------|
|----------------------------------------------------------------|
|----------------------------------------------------------------|
|-------7-9---9---10--10--9---9---------7-9---9---10--10--9------|
|-7-9-11----11------11------11----7-9-11----11------11-----------|
|----------------------------------------------------------------|
|----------------------------------------------------------------|
|----------------------------------------------------------------|
|----------------------------------------------------------------|
|-------7-9---9---11--11--9---9---------7-9---9---11--11--9------|
|-7-9-11----11------11------11----7-9-11----11------11-----------|
|----------------------------------------------------------------|
|----------------------------------------------------------------|
|----------------------------------------------------------------|
|----------------------------------------------------------------|
|-----------------------------------------------7-5-------5------|
|-------5-7---7---6---6---5---5---------5-7---7-----7---7--------|
|-4-6-7-----7-------6-------5-----4-6-7-----7---------7----------|
|----------------------------------------------------------------|
|----------------------------------------------------------------|
|----------------------------------------------------------------|
|-----------------------------------------------7-5-----7--------|
|-------5-7---7---6---6---7---7---------5-7---7-----7------------|
|-4-6-7-----7-------6-------7-----4-6-7-----7---------7---4------|
|----------------------------------------------------------------|
|----------------------------------------------------------------|
|----------------------------------------------------------------|
|-----7---------------7-------------------------7-6---6-9-7------|
|-----7---------------7-----------------5-7---7-----7------------|
|-----7---------------7-----------4-6-7-----7--------------------|
|-----9---------------9------------------------------------------|
|-----9---------------9------------------------------------------|
|-7---------------7----------------------------------------------|
|-----7---------------7-------------------------7-6---6-9-7------|
|-----7---------------7-----------------5-7---7-----7------------|
|-----7---------------7-----------4-6-7-----7--------------------|
|-----9---------------9------------------------------------------|
|-----9---------------9------------------------------------------|
|-7---------------7----------------------------------------------|
Документ
Категория
Ноты, аккорды
Просмотров
19
Размер файла
25 Кб
Теги
пещеры, григ, король, эдвард, горного
1/--страниц
Пожаловаться на содержимое документа