close

Вход

Забыли?

вход по аккаунту

?

ДДТ - Далеко, далеко

код для вставкиСкачать
Любовь (1996), Город без окон. Вход (2004)
Далеко, далеко
!(Ю. Шевчук)
>Am F Am Dm
Далеко, далеко беззаботные дни,
>Am Dm Am F Dm
Я смотрю как легко исчезают они.
>Em Dm G Em Dm G
Слышу я тишину, что молчит в тишине,
>Em Dm G Dm F
Вижу мир да войну, грею ночь на огне.
> Am Dm G Em Am Dm G Em
Припев:Дорога, дорога...
Далеко, далеко, где не зла, не беды,
Ты дала мне воды, я нырнул глубоко.
Женовала луна, целовавшая день,
Ты вдали так видна, рядом ветер да тень.
!Припев
Шли вдвоем по реке, собирая лады,
Но его лишь следы вижу я на песке...
!Припев
Далеко - далеко...
-
Intro:<Am Fmaj7 Asus/D>
>Am Fmaj7 Asus/D G
!(при переходе на второй проигрыш - с <G> на <Am> -
!переход резкий, добиться "звучания перехода" 2-й струны)
> Am Fmaj7 Asus/D
1|----0---|----0---|-------0-|------0-|
2|-------1|-------1|----3--3-|------3-|
3|--2-----|-2------|--2----2-|------2-| } 2 раза
4|------2-|3-3---3-|34-------|--------|
5|0-------|--------|---------|--------|
6|--------|--------|---------|--------|
> Am Fmaj7 Asus/D G
1|----0---|----0---|------0-|--------|
2|-------1|-------1|----3---|------0-|-1-----|
3|--2---2-|-2------|--2-----|--0-----|
4|--------|3-3---3-|34------|-0-0----|
5|0-------|--------|--------|--------|
6|--------|--------|--------|3-------|
>Am Fmaj7 Asus/D
Далеко, далеко
!<Am Fmaj7 Asus/D G> (переход)
Беззаботные дни.
>Am Fmaj7 Asus/D
Я смотрю, как легко
>Am Fmaj7 Asus/D G
Исчезают они.
>Em Asus/D G
Слышу я тишину,
>Em Asus/D G
Что молчит в тишине.
>Em Asus/D G
Вижу мир да войну,
>Em Asus/D Fmaj7
Грею ночь на огне.
> Am Dsus G C9 G/H
Припев:Я- дорога.
> Am Dsus G Em
Дорога.
> Am Dsus G C9 G/H
Да-да-да, дорога.
> Am Dsus G Em
Дорога.
>Am Fmaj7 Asus/F# Am Fmaj7 Asus/D G
Далеко, далеко, Где ни зла, ни беды,
>Am Fmaj7 Asus/F# Am Fmaj7 Asus/D G
Ты дала мне воды, Я нырнул глубоко.
>Em Asus/D G Em Asus/D G
Женовала Луна, целовавшая день.
> Em Asus/D G Em Asus/D Fmaj7
Ты вдали так видна, Рядом ветер да тень.
!Припев
Проигрыш:<Am Fmaj7 Asus/D>
>Am Fmaj7 Asus/D G
>Em Asus/D G Em Asus/D G
Шли вдвоем по реке, собирая лады.
>Em Asus/D G Em Asus/D G
Но его лишь следы вижу я на песке
!Припев
>Am Fmaj7 Asus/D
Далеко, далеко...
<Fmaj7> - [003210]
<Asus/D> - [000230]
<Asus/F#> - [200230]
<G> - [320033]
<G/H> - [320003]
<C9> - [032033]
<Dsus> - [000233]
-
> Am F7+ D9
1|----0---|----0---|------0-|--------|
2|-------1|-1-----1|----3-3-|--------|
3|--2---2-|--------|--2---2-|--------| } 4 раза
4|--------|3-3---3-|4-----4-|--------|
5|0-------|--------|--------|--------|
6|--------|--------|--------|--------|
>Am F7+ D9
Далеко, далеко,
>Am F7+ D9 G G4 G
В беззаботные дни,
>Am F7+ D9
Я смотрю, как легко
>Am F7+ D9 G G4 G
Исчезают они.
>Em D9 G G4 G
Слышу я тишину,
Что молчит в тишине,
Вижу мир да войну,
>Em D9 F7+
Грею ночь на огне.
> Am D9 D4 D9 G C Em
Припев:Я - дорога!
Дорога!
Да-да-дорога!
Дорога!
Далеко, далеко,
Где ни зла, ни беды,
Ты дала мне воды,
Я нырнул глубоко.
Женовала луна,
Целовавшая день,
Ты вдали так видна,
Рядом ветер да тень.
!Припев
>Em D9 G G4 G
Шли вдвоем по реке,
Собирая лады.
Hо его лишь следы
>Em D9 F7+
Вижу я на песке.
!Припев
Я - дорога!
Дорога!
Да-да-дорога!
Дорога!
Далеко, далеко...
> Am F7+ D9 G G4 G
1|----0---|----0---|------0-|3-3-----|
2|-------1|-1-----1|----3---|0-0-1-0-|
3|--2---2-|--------|--2-----|0-0-----| для второй и четвертой
4|--------|3-3---3-|4-------|0-0-----| строчек куплета
5|0-------|--------|--------|2-2-----|
6|--------|--------|--------|3-3-----|
> F7+
1|-0------|
2|-1------| для окончания куплета
3|-2------|
4|-3------|
5|-0------|
6|-0------|
> Am D9 D4 D9 G C Em
1|0-------|0---3---|0---3---|0---0---|
2|1-------|3---3---|3---0---|1---0---| для припева
3|2-------|2---2---|2---0---|0---0---|
4|2-------|0---0---|0---0---|2---2---|
5|0-------|0---0---|0---2---|3---2---|
6|0-------|--------|----3---|0---0---|
-
Проигрыш:<Am Fmaj7 (*)> } 2 pаза
>Am Fmaj7 (*)
1|---------0---------0-0---------0|
2|------1---1------1----0------3--|
3|----2----------2-----------2----|
4|-------------3-----------4------|
5|--0-----------------------------|
>Am Fmaj7 (*) Am Fmaj7 Dsus2 G5/B
Далеко, далеко беззаботные дни
!почти то же, что и проигрыш, но последние 2 аккорда играются так:
> Dsus2 G5/B
1|------0-----3--3--------|
2|----3---3---3--3----3---|
3|--2---------0--0--0-----|
4|-0----------0--0--------|
5|------------2--2--------|
! вниз вверх
>Am Fmaj7 (*) Am Fmaj7 Dsus2 G5/B
Я смотpю как легко исчезают они
>Em Dm G1= Em Dm G1=
!(с этой строчки боем)
Слышу я тишину, что молчит в тишине
>Em Dm G1= Em Dm Fmaj7/E Fmaj7/C
Вижу миp да войну, гpею ночь на огне
!Припев
>Am (*2)= Am (*3)= Am (2*)= Am (*3)=
Я - доpога ! Доpога. Да-да-доpога. Доpога
Далеко, далеко, где не зла не беды
Ты дала мне воды, я ныpнул глубоко
Женовала луна, целовавшая день
Ты вдали так видна, pядом ветеp да тень
!Припев
>Am F D Am F D G } 2 pаза
Шли в двоем по pеке
Собиpая лады
Hо его лишь следы
Вижу я на песке
!пpимечания
>Fmaj7 (*) Dsus2 G5/B Fmaj7/E Fmaj7/C Am2 G1=
[-----------------3---------------------- -3-3-1-
-1-----3---3-----3-----1-------1------1- -3-1---
-2-----2---2-----------2-------2-------- -------
-3-----4---------------3-------3-------- -------
-x-----x---x-----2-----3-------3------2- -2-2-2-
-x-----x---x-----x-----1-------x-------- -x-x-x-]
>(*2)= (*3)=
>(D G C Am2) (D G Em)
-
Вступление:< Am F7+ D9>
1|----0---|----0---|------0-|
2|-------1|-------1|----3---|
3|--2---2-|-2------|--2-----| это играется 2 раза, потом
4|--------|3-3---3-|4-------| в 1-х и 3-х строчках купле
5|0-------|--------|--------| тов. (для 1-х частей куп-
6|--------|--------|--------| летов)
> Am F7+ D9 G
1|----0---|----0---|------0-|3-3-----|
2|-------1|-------1|----3---|0---1-0-|
3|--2---2-|-2------|--2-----|--------| для 2-х и 4-х
4|--------|3-3---3-|4-------|--------| строчек куплетов.
5|0-------|--------|--------|--------|
6|--------|--------|--------|3-------|
>Am F7+ D9
Далеко, далеко
>Am F7+ D9 G
Беззаботные дни.
>Am F7+ D9
Я смотрю, как легко
>Am F7+ D9 G
Исчезают они.
!У вторых частей куплетов дело обстоит иначе,
!короче играть надо по-другому.
!Для начала новый аккорд:
!<E5-/7+/9> (звучит, да?):
1|3|
2|5| Название этого аккорда придумал я сам. Если я его назвал не
3|4| правильно, то извините.
4|2|
5|-|
6|-|
> E5-/7+/9 Dm G
1|-3----3-|1-0-----|3--3—3-3|3--3------| (В этом месте я советую
2|-----5--|3---3-3-|0--3-3-3|-1-1-0-1-0| вам сначала послушать
3|-4—-4---|2-------|--0-----|----------| песню, из-за длитель
4|-2------|0-------|-0------|----0-----| ности нот.) Так играются
5|--------|--------|--------|----------| все вторые части, кроме
6|--------|--------|3-------|----------| последней строчки.
!Для последней строчки куплетов второй части:
>E5-/7+/9 Dm F
1|-3----3-|1-------|----------------------------------------------|
2|-----5--|3-----3-|-1----1--1-----1----------1--1--1--1---1--1-1-|
3|-4--4---|2---2---|-2----2--2-2---2----2--2--2--2--2------2--2-2-|
4|-2------|0-------|-3--3-3--3-3-3-3----3--3--3----------3----3-3-|
5|--------|--------|------------3-----------3-----------3------3--|
6|--------|--------|-1-------------1----------1------------1------|
>E5-/7+/9 Dm G
Слышу я тишину,
>E5-/7+/9 Dm G
Что молчит в тишине.
>E5-/7+/9 Dm G
Вижу мир да войну,
>E5-/7+/9 Dm F
Грею ночь на огне.
!(Здесь тоже советую послушать песню)
После этого проигрыша сразу же идёт припев.
Припев:< F Am Hm7>
1|-------------|-0-----0-|-------|--------|---------|
2|1-1-1—1-1----|-------1-|-3-3--3|-3----3-|5---3----|
3|2-2---2-2-2-0|-2-------|-2-2--2|-4---4--|5---4---4|
4|3-3---3-3----|-2-----2-|-5-5--4|-5--5--5|5-5-5--5-|
5|-------------|---------|-------|--------|---------|
6|-------------|---------|-------|--------|---------|
Я - дорога!
> Am Hm7
1|0-----0|-------|---------|0----0-|
2|------1|3-----3|3----3---|0---0--|
3|2------|2--2--2|4----4---|0--0---|
4|2-----2|5-5---4|5-5--5--5|-------|
5|-------|-------|---------|-------|
6|-------|-------|---------|-------|
Дорога!
> Am Hm7
|-0-----0-|-------|--------|0----------|
|-------1-|-3-3--3|-3----3-|1---1-3---0|
|-2-------|-2-2--2|-4---4--|0--0--4--0-|
|-2-----2-|-5-5--4|-5--5--5|-----------|
|---------|-------|--------|-----------|
|---------|-------|--------|-----------|
Да-да-дорога!
>Am Hm7
|-0-----0-|-------|-------|0----0|
|-------1-|-3-3--3|-3----3|0---0-|
|-2-------|-2-2--2|-4----4|0--0--|
|-2-----2-|-5-5--4|-5----5|------|
|---------|-------|-------|------|
|---------|-------|-------|------|
Дорога!
>Am F7+ D9
Далеко, далеко,
>Am F7+ D9 G
Где ни зла, ни беды,
>Am F7+ D9
Ты дала мне воды,
>Am F7+ D9 G
Я нырнул глубоко.
>E5-/7+/9 Dm G
Женовала Луна,
>E5-/7+/9 Dm G
Целовавшая день.
>E5-/7+/9 Dm G
Ты вдали так видна,
>E5-/7+/9 Dm F
Рядом ветер да тень.
!Припев
!Здесь просто проигрыш 1-й части куплета.
>E5-/7+/9 Dm G
Шли вдвоем по реке,
>E5-/7+/9 Dm G
Собирая лады.
>E5-/7+/9 Dm G
Но его лишь следы
>E5-/7+/9 Dm F
Вижу я на песке.
!Припев
>Am F7+ D9
Далеко, далеко...
!Ну вот и всё!
-
>Am Fmaj7 Dsus2/f#
Далеко, далеко,
>Am Fmaj7 Dsus2/f# G
В беззаботные дни,
>Am Fmaj7 Dsus2/f#
Я смотpю, как легко
>Am Fmaj7 Dsus2/f# G
Исчезают они.
>Em Dsus2 G
Слышy я тишинy,
>Em Dsus2 G
Что молчит в тишине,
>Em Dsus2 G
Вижy миp да войнy,
>Em Dsus2 Fmaj7
Гpею ночь на огне.
> Am D G C G
Я - доpога!
> Am D G E
Доpога!
> Am D G C G
Да-да-доpога!
> Am D G E
Доpога!
Далеко, далеко,
Где ни зла, ни беды,
Ты дала мне воды,
Я ныpнyл глyбоко.
Женовала лyна,
Целовавшая день,
Ты вдали так видна,
Рядом ветеp да тень.
Я - доpога!
Доpога!
Да-да-доpога!
Доpога!
Шли вдвоем по pеке,
Собиpая лады.
Hо его лишь следы
Вижy я на песке.
Я - доpога!
Доpога!
Да-да-доpога!
Доpога!
Далеко, далеко...
Документ
Категория
Ноты, аккорды
Просмотров
4
Размер файла
11 Кб
Теги
ддт, далеко
1/--страниц
Пожаловаться на содержимое документа