close

Вход

Забыли?

вход по аккаунту

?

ДДТ - На небе вороны

код для вставкиСкачать
Рождённый в СССР (1997)
На небе вороны
>Em C Am7 H7
На небе вороны, под небом монахи,
> Em C Am7 H7
И я между ними в расшитой рубахе,
> C* Am7 H7
Лежу на просторе, легка и пригожа,
> Em C Am7 H7 Em C Am7 H7
И солнце взрослее и ветер моложе.
Меня отпевали в громадине храма,
Была я невеста, прекрасная дама,
Душа моя рядом стояла и пела,
Но люди, не веря, смотрели на тело.
Судьба и молитва менялись местами,
Молчал мой любимый и крестное знамя,
Лицо его светом едва освещало,
Простила его, я ему все прощала.
Весна задрожав от печального звона,
Смахнула три капли на лики иконы,
Что мирно покоилась между руками,
Ее целовало веселое пламя.
Свеча догорела, упало кадило,
Земля застонав, превращалась в могилу,
Я бросилась в небо за легкой синицей,
Теперь я на воле, я белая птица.
Взлетев на прощанье, кружась над родными,
Смеялась я, горе их не понимая,
Мы встретимся вскоре, но будем иными,
Есть вечная воля, зовет меня стая.
>Em C A7 H7
|-------------| |-------------| |-------------| |-------------|
|-------------| |-------------| |-------------| |-------------|
|-------2-----| |-------0-----| |-------0-----| |-------2-----|
|----2-----2--| |----2-----2--| |----2-----2--| |----4-----4--|
|-------------| |--3----------| |--0----------| |--2----------|
|--0----------| |-------------| |-------------| |-------------|
>C*
|--------------------------|
|--------------------------|
|-------0----------0-------|
|----2-----2----2-----2----|
|--3----------3------------|
|--------------------------|
-
> Em C Am H7
На небе вороны, под небом монахи,
И я между ними, в расшитой рубахе.
> C Am H7
Лежу на просторе, светла и пригожа.
> Em C Am H7
И солнце взрослее, и ветер моложе.
Меня отпевали в громадине храма.
Была я невеста, Прекрасная Дама.
Душа моя рядом стояла и пела,
А люди, не веря, смотрели на тело.
Судьба и молитва менялись местами.
Молчал мой любимый, и крестное знамя
Лицо его светом едва освещало.
Простила ему, я ему все прощала.
Земля, задрожав от печального звона,
Смахнула две капли на каплю иконы,
Что мирно покоилась между руками.
Ее целовало веселое пламя.
Свеча догорела, упало кадило,
Земля, застонав, превращалась в могилу.
Я бросилась в небо за легкой синицей.
Теперь я на воле, я - белая птица.
Взлетев на прощанье, смеясь над родными,
Смеялась я, горя их не понимая.
Мы встретимся вскоре, но будем иными,
Есть вечная воля, зовет меня стая.
-
>Em Cmaj7 Am7 H7+
На небе вороны, под небом монахи,
И я между ними в расшитой рубахе,
>Cmaj7 Am7 H7+
Лежу на просторе, легка и пригожа,
>Em Cmaj7 Am7 H7+
И солнце взрослее и ветер моложе.
!Переборы:
> Em Cmaj7 Am7 H7+
1|---------|---------|---------|---------|
2|---------|---------|---------|---------|
3|-----0---|-----0---|-----0---|-----0---|
4|---2---2-|---2---2-|---2---2-|---1---1-|
5|---------|-3-------|-0-------|---------|
6|-0-------|---------|---------|-2-------|
!Начиная с "Весна задрожав..."
1|---------|---------|---------|---------|
2|---0-0-0-|---0-0-0-|---1-1-1-|---0-0-0-|
3|---0-0-0-|---4-4-4-|---0-0-0-|---0-0-0-|
4|---2-2-2-|---2-2-2-|---2-2-2-|---1-1-1-|
5|---------|-3-------|-0-------|---------|
6|-0-------|---------|---------|-2-------|
!Соло:
[1|-8-7-5-3-0--7--5-7-5--0--
--8-7-5-3-12--7--5-7-5--0--
--3--8-7-5-7--5--0--
--12--12-10-8-7--5--0-|]
Документ
Категория
Ноты, аккорды
Просмотров
13
Размер файла
4 Кб
Теги
ддт, ворон, небе
1/--страниц
Пожаловаться на содержимое документа