close

Вход

Забыли?

вход по аккаунту

?

ДДТ - Новое сердце

код для вставкиСкачать
Новое сердце
Вступление: } 2 раза
! (напористо) (замедляя)
> Hm G Em F#7
1|------------------------------------------------------
2|----2-3-2-3-0----0-1-0-1-0----0-1-0-1-0----3-3-3-2-0--
3|----4-4-4-4-0----0-0-0-0-0----0-0-0-0-0----0-0-0-0-0--
4|------------------------------------------------------
5|--2---------------------------------------------------
6|---------------3------------0------------0------------
Куплет:< D F# Hm G>
1|--------2------------2------------0-------------------
2|------3---3--------2---2------2-3---3-2--------3-2-0--
3|----2-------2----3-------3-------------------0--------
4|--0----------------------------------------0----------
5|----------------------------2-------------------------
6|---------------2-------------------------3------------
> D F# Hm G
1|--------2------------2--------------------------------
2|------3---3--------2---2------2-3-2-3-0----0-2-0-2----
3|----2-------2----3-------3-------------------------2--
4|--0---------------------------------------------------
5|----------------------------2-------------------------
6|---------------2-------------------------3------------
> D F#
Небо звездное, метель августа,
> Hm G
На дороге машин канителица,
> D F#
Возят засуху, а мне радостно -
> Hm G
Знаю точно, погода изменится!
Я смотрю наверх, там где мы живем,
Так все тихо, сухо, да правильно.
Я же из тех, кому нет победы днем,
Я как степь дышу сном неправедным.
Я по засухе, ведро полное
Между фар лисой, живьем пламени.
Я так мал, а вокруг все огромное,
И плевать, что ни ружья да ни знамени!
Небо звездное, метель августа,
Оглянись - расцветает пророчество.
Дело степь мое - одиночество,
Смерти нет, но всегда - пожалуйста.
Припев:< D F# Hm G>
1|--------2------------2------------2-------------------
2|------3---3--------2---2--------3---3----------3-2-0--
3|----2-------2----3-------3----4-------4------0--------
4|--0----------------------------------------0----------
5|----------------------------2-------------------------
6|---------------2-------------------------3------------
> D F# G E
1|--------2------------2------------3------------0------
2|------3---3--------2---2--------3---3--------0---0----
3|----2-------2----3-------3----4-------4----1-------1--
4|--0---------------------------------------------------
5|------------------------------------------------------
6|---------------2------------3------------0------------
>D F# Hm G
Новое сердце взорвется над нами
>D F# G E
Новая жизнь позовет за собой.
И освященный седыми богами
Я, как на праздник, пойду за тобой.
!Мелодический эпизод:
> Hm G Em F#7
1|------------------------------------------------------
2|----2-3-2-3-0----0-1-0-1-0----0-1-0-1-0----0-1-0-1-0--
3|------------------------------------------------------
4|------------------------------------------------------
5|--2---------------------------------------------------
6|---------------3------------0------------3------------
! (замедляя)
> Hm G Em F#7
1|------------------------------------------------------
2|----2-3-2-3-0----0-1-0-1-0----0-1-0-1-0----3-3-3-2-0--
3|------------------------------------------------------
4|------------------------------------------------------
5|--2---------------------------------------------------
6|---------------3------------0------------0------------
Куплет:Небо звездное, руки августа,
На дороге машин метелица
Что пожнем, когда пыль рассеется
Степь красна, как чернила Фауста.
Ночь светла, как круги от времени,
Что забросил я в смерть уставшую.
Все дороги растут из семени,
Не дошедшего, да недоспавшего…
Жду от нового века, белого,
Продолжения понимания,
Что мы часть всего безответного,
Что мы ночь всего ожидания.
Припев:Новое сердце взорвется над нами
Новая жизнь позовет за собой.
И освященный седыми богами
Я, как на праздник, пойду за тобой.
Новое сердце взорвется над вами
Новая жизнь позовет за собой.
И освященный седыми богами
Я, как на праздник, пойду в этот бой.
!Мелодический эпизод
-
!Оригинальная тональность
!Мелодический эпизод:
>Hm G Em F#7 } 2 раза
Куплет:
квадрат:<D F# Hm G>
Небо звездное, метель августа,
На дороге машин канителица,
Возят засуху, а мне радостно –
Знаю точно, погода изменится!
Я смотрю наверх, там где мы живем,
Так все тихо, сухо, да правильно.
Я же из тех, кому нет победы днем,
Я как степь дышу сном неправедным.
Я по засухе, ведро полное
Между фар лисой, живьем пламени.
Я так мал, а вокруг все огромное,
И плевать, что ни ружья да ни знамени!
Небо звездное, метель августа,
Оглянись – расцветает пророчество.
Дело степь мое – одиночество,
Смерти нет, но всегда – пожалуйста.
Припев:<D F# Hm G>
>D F# G E
Новое сердце взорвется над нами
Новая жизнь позовет за собой.
И освященный седыми богами
Я, как на праздник, пойду за тобой.
!Мелодический эпизод:
>Hm G Em F#7
Куплет:
квадрат:<D F# Hm G>
Небо звездное, руки августа,
На дороге машин метелица
Что пожнем, когда пыль рассеется
Степь красна, как чернила Фауста.
Ночь светла, как круги от времени,
Что забросил я в смерть уставшую.
Все дороги растут из семени,
Не дошедшего, да недоспавшего…
Жду от нового века, белого,
Продолжения понимания,
Что мы часть всего безответного,
Что мы ночь всего ожидания.
Припев:<D F# Hm G>
>D F# G E
Новое сердце взорвется над нами
Новая жизнь позовет за собой.
И освященный седыми богами
Я, как на праздник, пойду за тобой.
>D F# Hm G
>D F# G E !!!…
Новое сердце взорвется над вами
Новая жизнь позовет за собой.
И освященный седыми богами
Я, как на праздник, пойду в этот бой.
!Мелодический эпизод:
>Hm G Em F#7
-
Вступление:(2 раза)
1) -------------------------------------------------------
2) ----2-3-2-3-0----0-2-0-2-0----0-2-0-2-0----3-3-3-2-0---
3) ----0-0-0-0-0----0-0-0-0-0----0-0-0-0-0----0-0-0-0-0---
4) -------------------------------------------------------
5) -2-----------------------------------------------------
6) --------------3------------0------------0--------------
!Еще одно вступление как вариант:
1|--------------------------------------------------------------------------|
2|-----2-3-2-3-2-3-2------3-3-3-3-3-3-3-------0-2-0-2-0-2-0-------3-3-3-2-0-|
3|-----4-4-4-4-4-4-4------4-7-4-7-4-7-4-------0-0-0-0-0-0-0-------0-0-0-0-0-|
4|-----4-4-4-4-4-4-4------5-5-5-5-5-5-5-------2-2-2-2-2-2-2-------2-2-2-0-4-|
5|-2------------------------------------------------------------------------|
6|---------------------3--------------------0------------------0------------|
Куплет:(Перебор на всю песню)
> D F# Hm G
1) --------2-----------2-----------2-----------3----
2) ------3---3-------2---2-------3---3-------3---3--
3) ----2-------2---3-------3---4-------4---4-------4
4) --0----------------------------------------------
5) --------------------------2----------------------
6) --------------2-----------------------3----------
!*Куплеты играются перебром <F#> и <G> играются с 4-ой струны. *
!*Припевы тоже перебором но в эти аккорды с 6-ой струны. *
!*Причём басом нужно подчеркивать начало каждой строки припева.*
> D F#
Небо звездное, метель августа,
> Hm G
На дороге машин канителица,
> D F#
Возят засуху, а мне радостно –
> Hm G
Знаю точно, погода изменится!
Я смотрю наверх, там где мы живем,
Так все тихо, сухо, да правильно.
Я же из тех, кому нет победы днем,
Я как степь дышу сном неправедным.
Я по засухе, ведро полное
Между фар лисой, живьем пламени.
Я так мал, а вокруг все огромное,
И плевать, что ни ружья да ни знамени!
Небо звездное, метель августа,
Оглянись – расцветает пророчество.
Дело степь мое – одиночество,
Смерти нет, но всегда – пожалуйста.
>D F# Hm G
Припев:Новое сердце взорвется над нами
>D F# G E
Новая жизнь позовет за собой.
И освященный седыми богами
Я, как на праздник, пойду за тобой.
!Проигрыш аккорда <E>:
> E
1) -------0------------0-----------0---------------
2) -----0---0--------0---0-------0---0-------------
3) ---1-------1----1-------1---1-------1-----------
4) ------------------------------------------------
5) ------------------------------------------------
6) -0------------0-----------0-----------0---------
!Solo на проигрыш аккордов: <Hm G Em F#> - проигрыш (2 раза)
[1|---9-10-9-10-7---7-9-7-9-5---7-9-7-9-7---7-9-7-9-5--
-9-10-9-10-7---7-9-7-9-5---7-9-7-9-7---10-10-10-9-7]
!Куплет:
Небо звездное, руки августа,
На дороге машин метелица
Что пожнем, когда пыль рассеется
Степь красна, как чернила Фауста.
Ночь светла, как круги от времени,
Что забросил я в смерть уставшую.
Все дороги растут из семени,
Не дошедшего, да недоспавшего…
Жду от нового века, белого,
Продолжения понимания,
Что мы часть всего безответного,
Что мы ночь всего ожидания.
!Припев:
Новое сердце взорвется над нами
Новая жизнь позовет за собой.
И освященный седыми богами
Я, как на праздник, пойду за тобой.
Новое сердце взорвется над вами
Новая жизнь позовет за собой.
И освященный седыми богами
Я, как на праздник, пойду в этот бой.
> E
1) -------0------------0-----------0---------------
2) -----0---0--------0---0-------0---0-------------
3) ---1-------1----1-------1---1-------1-----------
4) ------------------------------------------------
5) ------------------------------------------------
6) -0------------0-----------0-----------0---------
!Solo на проигрыш аккордов: <Hm G Em F#> - проигрыш (2 раза)
[1|---9-10-9-10-7---7-9-7-9-5---7-9-7-9-7---7-9-7-9-5--
-9-10-9-10-7---7-9-7-9-5---7-9-7-9-7---10-10-10-9-7---]
-
Вступление:[E||--------------|---------------------|----------------------|
B||--------------|-------2-0----3------|--2------3------------|
G||--------------|--------------4------|--4--------4-----4----|
D||--------------|-------4--------4----|----4----4-------4----|
A||--------------|--2------------------|----------------------|
E||--------------|---------------------|----------------------|
---------------------|-----------------|-----------------|-----------------|
---------0----2------|--0----2----0----|-------0----2----|--0----2----0----|
-------0--------0----|--0----0---------|-------0---------|--0----0----0----|
-------0------0------|--0----0----1----|-------2----2----|--2----2----2----|
---------------------|------------0----|------------1----|-----------------|
--3------------------|-----------------|--0--------------|-----------------|
-------------------|------------------|-----------------|-----------------|
--------------0----|--0----------0----|------------0----|--0----3---------|
---------0----7----|--7---------------|-------0----7----|--6----4---------|
-------2-8----5----|--5----0-----0----|-------6---------|--4----4----4----|
---------9----7----|--7----7-----9----|-------9----9----|------------9----|
--0----------------|-------10---------|--7--------------|-----------------|
------------------|------------------|-------------------|-----------------|
-------------2----|--0----2-----0----|--------------2----|--0----2----0----|
-------------0----|--0----0-----0----|---------0----0----|--0----0----0----|
-------0-----0----|--0----0-----0----|-------2-4----2----|--2----2----2----|
-------5----------|------------------|-------------------|-----------------|
--3----10---------|------------------|--0----------------|-----------------|
------------------|-----------------
-------------0----|--0----0----0----
------------------|--7----6---------
-------0-----7----|--5----5----4----
-------8-----6----|--7----5----5----
--0----10----7----|-----------------
Сама песня:|-----------------|--2--------------|
|------------3----|-------3---------|
|-------2---------|------------2----|
|--0--------------|-----------------|
|-----------------|-----------------|
|-----------------|-----------------|
-----------------|--2--------------|-----------------|--0--------------|
------------2----|-------2---------|-------2----3----|-------3----2----|
-------3---------|------------3----|-----------------|-----------------|
-----------------|-----------------|-----------------|-----------------|
-----------------|-----------------|--2--------------|-----------------|
--2--------------|-----------------|-----------------|-----------------|
-----------------|-----------------|-----------------|--2--------------|
-------0----2----|--3----2----0----|------------3----|-------3---------|
-----------------|-----------------|-------2---------|------------2----|
-----------------|-----------------|--0--------------|-----------------|
-----------------|-----------------|-----------------|-----------------|
--3--------------|-----------------|-----------------|-----------------|
-----------------|--2--------------|-----------------|-----------------|
------------2----|-------2---------|-------2----3----|--2----3----0----|
-------3---------|------------3----|-------4---------|--4--------------|
-----------------|-----------------|-----------------|-----------------|
-----------------|-----------------|--2--------------|-----------------|
--2--------------|-----------------|-----------------|-----------------|
-----------------|-----------------|-----------------|--2--------------|
-------0----2----|--3----2----0----|------------3----|--5----3---------|
-----------------|--4--------------|-------2---------|------------2----|
-----------------|-----------------|--0---------2----|--3--------------|
-----------------|-----------------|-----------------|-----------------|
--3--------------|-----------------|-----------------|-----------------|
-----------------|--2--------------|-----------------|--0--------------|
------------2----|-------2---------|-------2----3----|-------3----2----|
--1----3---------|--1---------3----|-----------------|--3--------------|
-----------------|--4--------------|-----------------|--4--------------|
-----------------|-----------------|--2--------------|-----------------|
--2--------------|-----------------|-----------------|-----------------|
-----------------|-----------------|-----------------|--2--------------|
-------0----2----|--3----2----0----|------------3----|-------3---------|
-----------------|-----------------|-------2---------|--2---------2----|
-------0---------|--4--------------|--0--------------|--3--------------|
-----------------|--6--------------|-----------------|-----------------|
--3--------------|-----------------|-----------------|-----------------|
-----------------|--2--------------|-----------------|-----------------|
------------2----|-------2---------|-------2----3----|--2----3----0----|
--1----3---------|------------3----|-------4---------|--4--------------|
-----------------|--3--------------|------------4----|-------4---------|
-----------------|-----------------|--2--------------|-----------------|
--2--------------|-----------------|-----------------|-----------------|
-----------------|-----------------|-----------------|--2--------------|
-------0----2----|--3----2----0----|------------3----|--5----3---------|
-----------------|--4--------------|-------2---------|------------2----|
------------4----|-----------------|--0---------2----|--3--------------|
-----------------|-----------------|-----------------|-----------------|
--3--------------|-----------------|-----------------|-----------------|
-----------------|--2--------------|-----------------|--0--------------|
------------2----|-------2---------|-------2----3----|-------3----2----|
--1----3---------|--1---------3----|-----------------|--3--------------|
-----------------|--4--------------|-----------------|--4--------------|
-----------------|-----------------|--2--------------|-----------------|
--2--------------|-----------------|-----------------|-----------------|
-----------------|-----------------|-----------------|--2--------------|
-------0----2----|--3----2----0----|------------3----|-------3---------|
-----------------|-----------------|-------2---------|--2---------2----|
-------0---------|--4--------------|--0--------------|--3--------------|
-----------------|--6--------------|-----------------|-----------------|
--3--------------|-----------------|-----------------|-----------------|
-----------------|--2--------------|-----------------|--0--------------|
------------2----|-------2---------|-------2----3----|--0----3----0----|
--1----3---------|------------3----|-------4---------|-----------------|
-----------------|--3--------------|------------4----|-------4---------|
-----------------|-----------------|--2--------------|-----------------|
--2--------------|-----------------|-----------------|-----------------|
-----------------|-----------------|------------------|---2--------------|
-------0----2----|--0----2----0----|-------------3----|---6----3---------|
-----------------|-----------------|--------2---------|-------------2----|
------------4----|-------4---------|---0---------2----|---2--------------|
-----------------|-----------------|------------------|------------------|
--3--------------|-----------------|------------------|------------------|
------------------|---2--------------|------------------|---0--------------|
-------------2----|--------2---------|--------2----3----|--------3----2----|
---1----3---------|---1---------3----|------------------|---3--------------|
------------------|---4--------------|------------------|---4--------------|
------------------|------------------|---2--------------|------------------|
---2--------------|------------------|------------------|------------------|
------------------|------------------|------------------|---2--------------|
--------0----2----|---3----2----0----|-------------3----|--------3---------|
------------------|------------------|--------2---------|---2---------2----|
--------0---------|---4--------------|---0--------------|---3--------------|
------------------|---6--------------|------------------|------------------|
---3--------------|------------------|------------------|------------------|
------------------|---2--------------|------------------|------------------|
-------------2----|--------2---------|--------2----3----|---2----3----0----|
---1----3---------|-------------3----|--------4---------|---4--------------|
------------------|---3--------------|-------------4----|--------4---------|
------------------|------------------|---2--------------|------------------|
---2--------------|------------------|------------------|------------------|
------------------|------------------|-----------------|--2--------------|
--------0----2----|---3----2----0----|------------3----|--5----3---------|
------------------|---4--------------|-------2---------|------------2----|
-------------4----|------------------|--0---------2----|--3--------------|
------------------|------------------|-----------------|-----------------|
---3--------------|------------------|-----------------|-----------------|
-----------------|--2--------------|-----------------|--0--------------|
------------2----|-------2---------|-------2----3----|-------3----2----|
--1----3---------|--2---------3----|-----------------|--3--------------|
-----------------|--3--------------|-----------------|--4--------------|
-----------------|-----------------|--2--------------|-----------------|
--2--------------|-----------------|-----------------|-----------------|
-----------------|-----------------|-----------------|--2--------------|
-------0----2----|--3----2----0----|------------3----|-------3---------|
-----------------|-----------------|-------2---------|--3---------2----|
-------0---------|--4--------------|--0--------------|--2--------------|
-----------------|--6--------------|-----------------|-----------------|
--3--------------|-----------------|-----------------|-----------------|
-----------------|--2--------------|-----------------|-----------------|
------------2----|-------2---------|------------0----|--3----0---------|
--1----3---------|------------3----|-------0---------|--0---------0----|
-----------------|--3--------------|-----------------|-----------------|
-----------------|-----------------|-----------------|-----------------|
--2--------------|-----------------|--3--------------|-----------------|
-----------------|--0--------------|-----------------|--2--------------|
------------0----|-------0---------|------------3----|--5----3---------|
-------1---------|--1---------1----|-------2---------|------------2----|
-----------------|-----------------|--0---------2----|--3--------------|
-----------------|-----------------|-----------------|-----------------|
--0--------------|-----------------|-----------------|-----------------|
-----------------|--2--------------|-----------------|--0--------------|
------------2----|-------2---------|-------2----3----|-------3----2----|
--1----3---------|--1---------3----|-----------------|--3--------------|
-----------------|--4--------------|-----------------|--4--------------|
-----------------|-----------------|--2--------------|-----------------|
--2--------------|-----------------|-----------------|-----------------|
-----------------|-----------------|-----------------|--2--------------|
-------0----2----|--3----2----0----|------------3----|-------3---------|
-----------------|-----------------|-------2---------|--3---------2----|
-------0---------|--4--------------|--0--------------|--2--------------|
-----------------|--6--------------|-----------------|-----------------|
--3--------------|-----------------|-----------------|-----------------|
-----------------|--2--------------|-----------------|-----------------|
------------2----|-------2---------|------------0----|--3----0---------|
--1----3---------|------------3----|-------0---------|--0---------0----|
-----------------|--3--------------|-----------------|-----------------|
-----------------|-----------------|-----------------|-----------------|
--2--------------|-----------------|--3--------------|-----------------|
--0---------0----|-------4---------|--0---------0----|-------4---------|
--0----0---------|--0----5----0----|--0----0---------|--0----5----0----|
--1----1----1----|--1----4---------|--1----1----1----|--1----4---------|
--2----2----2----|--2----6----2----|--2----2----2----|--2----6----2----|
--2---------2----|-------7---------|--2---------2----|-------7---------|
-----------------|-------7---------|-----------------|-------7---------|
--0---------0----|-------4---------|--4------------|--------------|
--0----0---------|--0----5----0----|--5------------|--------------|
--1----1----1----|--1----4---------|--4------------|--------------|
--2----2----2----|--2----6----2----|--2------------|--------------|
--2---------2----|-------7---------|--2------------|--------------|
-----------------|-------7---------|---------------|--------------|]
Документ
Категория
Ноты, аккорды
Просмотров
7
Размер файла
24 Кб
Теги
сердце, ддт, новое
1/--страниц
Пожаловаться на содержимое документа