close

Вход

Забыли?

вход по аккаунту

?

ДДТ - Пацаны

код для вставкиСкачать
Рожденный в СССР (1997)
Пацаны
!(Ю. Шевчук)
> Em H7 Em
Умирали пацаны страшно,
> G D G
Умирали пацаны просто,
> Am H7 C
И не каждый был снаружи прекрасным,
> Am H7 Em
И не все были высокого роста.
Но когда на меня смотрели
Эти пыльные глаза человечьи,
Не по-птичьи да не по-овечьи -
По-людски они меня грели.
> Am D
А я им пел рок-н-ролльные песни,
> G Em
Говорил: "Все будет нормально",
> Am D
Я кричал им, что мы все вместе,
> Em H7
Да как-то слушалось это банально...
Чем ближе к смерти, тем чище люди,
Чем дальше в тыл, тем жирней генералы.
Здесь я видел, что может быть будет
С Москвой, Украиной, Уралом.
Восемнадцать лет - это немного,
Когда бродишь по Тверской да без денег,
И немало, когда сердце стало,
От страны тебе пластмассовый веник.
Страна поет им рок-н-ролльные песни,
Говорит: "Все будет нормально",
Страна кричит им, что мы все вместе,
Да звучит это как-то банально.
Умирали пацаны страшно,
Умирали пацаны просто,
И не каждый был снаружи прекрасным,
И не все были высокого роста.
-
>Am E Am
Умирали пацаны страшно,
> С G C
Умирали пацаны просто,
> Dm E F
И не каждый был снаружи прекрасный,
> Dm E Am
И не все были высокого роста,
> Dm G
Припев:А я им пел рокэнрольные песни,
> С Аm
Говорил все будет нормально,
> Dm G
Я кричал им, что мы все вместе,
> E Am
Да как то слышалось это банально,
Умирали пацаны страшно,
Умирали пацаны просто
И не каждый был снаружи прекрасным,
И не все были высокого роста.
Но когда на меня смотрели
Эти пыльные глаза человечьи
Не по-птичьи, да не по-овечьи,
По-людски они меня грели
А я им пел рок'н'рольные песни,
Говорил: все будет нормально
Я кричал, что мы все вместе,
Да только слушалось это банально.
Чем ближе к смерти, тем чище люди
Чем дальше в тыл, тем жирней генералы
Здесь я видел что может быть будет
С Москвой, Украиной, Уралом.
Восемнадцать лет - это не много
Когда бродишь по Тверской и без денег,
И не мало когда сердце стало
От страны тебе пластмассовый веник
Страна поет им рок'н'рольные песни,
Говорит: все будет нормально
Страна кричит, что мы все вместе,
Да звучит это как то банально.
Умирали пацаны страшно,
Умирали пацаны просто
И не каждый был снаружи прекрасным,
И не все были высокого роста.
-
> Em H7 Em
Умиpали пацаны стpашно,
> G D G
Умиpали пацаны пpосто,
> Am H7 C
И не каждый был снаpужи пpекpасным
> Am H7 Em
И не все были высокого pоста.
Hо когда на меня смотpели
Эти пыльные глаза человечьи
Hе по-птичьи, да не по-овечьи
По людски они меня гpели.
> C D
А я им пел pок-н-pольные песни
> H7 Em
Говоpил, всё будет ноpмально
> C D
Я кpичал им что мы все вместе
> H7 Em
Да как-то слушалось это банально.
Чем ближе к смеpти, тем чище люди
Чем дальше в тыл, тем жиpней генеpалы
Здесь я видел, что может будет
С Москвой, Укpаиной, Уpалом.
Восемнадцать лет это не много
Когда бpодишь по Твеpской да без денег
И не мало когда в сеpдце стало
От стpаны тебе пластмассовый веник.
Стpана поёт им pок-н-pольные песни
Говоpит всё будет ноpмально
Стpана кpичит им что мы все вместе
Да звучит это как-то банально.
Умиpали пацаны стpашно
Умиpали пацаны пpосто
И не каждый был с наpужи пpекpастный
И не все были высокого pоста.
-
Умирали пацаны страшно,
> Em H7 Em
Умирали пацаны просто.
>D G
И не каждый был снарyжи прекрасный,
> Am H7 C
И не все были высокого роста.
> Am H7 Em
Hо когда на меня смотрели
Эти пыльные глаза человечьи
Hе по птичьи, не по овечьи -
По людски они меня грели.
А я им пел рок'н'рольные песни,
> Am D
Говорил - все бyдет нормально,
> G Em
Я кричал, что мы все вместе,
> Am D
Да как-то слyшалось это банально.
> G H7 Em
Чем ближе к смерти, тем чище люди,
Чем дальше в тыл, тем жирней генералы.
Здесь я видел, что может быть бyдет
С Москвой, Украиной, Уралом.
Восемнадцать лет - это не много,
Когд бродишь по Тверской да без денег,
И не мало, когда сердце стало,
А от страны тебе пластмассовый веник.
Страна поет им рок'н'рольные песни,
Говорит все бyдет нормально.
Страна кричит им, что мы все вместе,
Да звyчит это как-то банально.
Умирали пацаны страшно,
Умирали пацаны просто.
И не каждый был снарyжи прекрасный,
И не все были высокого роста...
-
[E||-------0---------0----|-------0-------------|-------0---------0----|
B||-------0---------0----|-------0-------------|-------0---------0----|
G||-------0---------0----|-------0-------------|-------0---------0----|
D||----------------------|---------------------|----------------------|
A||------------2---------|------------2--------|------------2---------|
E||--0-------------------|--0------------------|--0-------------------|
-------0---------0----|-------3---------3----|-------3---------3----|
-------0---------0----|-------0---------0----|-------0---------0----|
-------0---------0----|-------0---------0----|-------0---------0----|
----------------------|----------------------|----------------------|
------------2---------|------------2---------|------------2---------|
--0-------------------|--3-------------------|--3-------------------|
----------------------|-------0---------0----|-----------------2----|
-------1---------1----|-------1---------1----|-------1---------0----|
-------2---------0----|-------0---------0----|-------2---------2----|
-------2---------2----|----------------------|-------2--------------|
--0---------2---------|--3-------------------|--0---------2---------|
----------------------|------------3---------|----------------------|
-------0---------0----|-------0---------0----|-------0---------0----|
-------0---------0----|-------0---------0----|-------0---------0----|
-------0---------0----|-------0---------0----|-------0---------0----|
----------------------|----------------------|----------------------|
------------2---------|------------2---------|------------2---------|
--0-------------------|--0-------------------|--0-------------------|
-------3---------3----|-------3---------3----|----------------------|
-------0---------0----|-------0---------0----|-------1---------1----|
-------0---------0----|-------0---------0----|-------2---------0----|
----------------------|----------------------|-------2---------2----|
------------2---------|------------2---------|--0---------2---------|
--3-------------------|--3-------------------|----------------------|
-------0---------0----|-----------------2----|-------0---------0----|
-------1---------1----|-------1---------0----|-------0---------0----|
-------0---------0----|-------2---------2----|-------0---------0----|
----------------------|-------2--------------|----------------------|
--3-------------------|--0---------2---------|------------2---------|
------------3---------|----------------------|--0-------------------|
-------0--0-------0--0--|-------2--2-------2--2--|-------3--3-------3--3--|
-------1--1-------1--1--|-------3--3-------3--3--|-------3--3-------3--3--|
-------0--0-------0--0--|-------2--2-------2--2--|-------0--0-------0--0--|
------------------------|--0---------------------|------------------------|
--3---------------------|-------------0----------|-------------2----------|
-------------3----------|------------------------|--3---------------------|
-------0--0-------0--0--|-------0--0-------0--0--|-------2--2-------2--2--|
-------0--0-------0--0--|-------1--1-------1--1--|-------3--3-------3--3--|
-------0--0-------0--0--|-------0--0-------0--0--|-------2--2-------2--2--|
------------------------|------------------------|--0---------------------|
-------------2----------|--3---------------------|-------------0----------|
--0---------------------|-------------3----------|------------------------|
-------2--2-------2--2--|-------0--0-------0--0--|-------0---------0----|
-------0--0-------0--0--|-------0--0-------0--0--|-------0---------0----|
-------2--2-------2--2--|-------0--0-------0--0--|-------0---------0----|
-------------1----------|------------------------|----------------------|
--2---------------------|-------------2----------|------------2---------|
------------------------|--0---------------------|--0-------------------|
-------0---------0----|-------3---------3----|-------3---------3----|
-------0---------0----|-------0---------0----|-------0---------0----|
-------0---------0----|-------0---------0----|-------0---------0----|
----------------------|----------------------|----------------------|
------------2---------|------------2---------|------------2---------|
--0-------------------|--3-------------------|--3-------------------|
----------------------|-------0---------0----|-----------------2----|
-------1---------1----|-------1---------1----|-------1---------0----|
-------2---------0----|-------0---------0----|-------2---------2----|
-------2---------2----|----------------------|-------2--------------|
--0---------2---------|--3-------------------|--0---------2---------|
----------------------|------------3---------|----------------------|
-------0---------0----|-------0---------0----|-------0---------0----|
-------0---------0----|-------0---------0----|-------0---------0----|
-------0---------0----|-------0---------0----|-------0---------0----|
----------------------|----------------------|----------------------|
------------2---------|------------2---------|------------2---------|
--0-------------------|--0-------------------|--0-------------------|
-------3---------3----|-------3---------3----|----------------------|
-------0---------0----|-------0---------0----|-------1---------1----|
-------0---------0----|-------0---------0----|-------2---------0----|
----------------------|----------------------|-------2---------2----|
------------2---------|------------2---------|--0---------2---------|
--3-------------------|--3-------------------|----------------------|
-------0---------0----|-----------------2----|-------0---------0----|
-------1---------1----|-------1---------0----|-------0---------0----|
-------0---------0----|-------2---------2----|-------0---------0----|
----------------------|-------2--------------|----------------------|
--3-------------------|--0---------2---------|------------2---------|
------------3---------|----------------------|--0-------------------|
-------0--0-------0--0--|-------2--2-------2--2--|-------3--3-------3--3--|
-------1--1-------1--1--|-------3--3-------3--3--|-------3--3-------3--3--|
-------0--0-------0--0--|-------2--2-------2--2--|-------0--0-------0--0--|
------------------------|--0---------------------|------------------------|
--3---------------------|-------------0----------|-------------2----------|
-------------3----------|------------------------|--3---------------------|
-------0--0-------0--0--|-------0--0-------0--0--|-------2--2-------2--2--|
-------0--0-------0--0--|-------1--1-------1--1--|-------3--3-------3--3--|
-------0--0-------0--0--|-------0--0-------0--0--|-------2--2-------2--2--|
------------------------|------------------------|--0---------------------|
-------------2----------|--3---------------------|-------------0----------|
--0---------------------|-------------3----------|------------------------|
-------2--2-------2--2--|-------0--0-------0--0--|-------------------|
-------0--0-------0--0--|-------0--0-------0--0--|-------------------|
-------2--2-------2--2--|-------0--0-------0--0--|-------------------|
-------------1----------|------------------------|-------------------|
--2---------------------|-------------2----------|-------------------|
------------------------|--0---------------------|--0----------------|
-------0---------0----|-------0---------0----|-------3---------3----|
-------0---------0----|-------0---------0----|-------0---------0----|
-------0---------0----|-------0---------0----|-------0---------0----|
----------------------|----------------------|----------------------|
------------2---------|------------2---------|------------2---------|
--0-------------------|--0-------------------|--3-------------------|
-------3---------3----|----------------------|-------0---------0----|
-------0---------0----|-------1---------1----|-------1---------1----|
-------0---------0----|-------2---------0----|-------0---------0----|
----------------------|-------2---------2----|----------------------|
------------2---------|--0---------2---------|--3-------------------|
--3-------------------|----------------------|------------3---------|
-----------------2----|-------0---------0----|-------------------||
-------1---------0----|-------0---------0----|-------------------||
-------2---------2----|-------0---------0----|-------------------||
-------2--------------|----------------------|-------------------||
--0---------2---------|------------2---------|-------------------||
----------------------|--0-------------------|--0----------------||]
-
> Em H Em
Умирали пацаны страшно,
> G D G
Умирали пацаны просто.
> Am H C
И не каждый был снаружи прекрасным,
> Am H Em
И не все были высокого роста.
Но когда на меня смотрели
Эти пыльные глаза человечьи
Не по-птичьи, да не по-овечьи,
По-людски они меня грели.
> Am D
А я им пел рок-н-ролльные песни,
> G G/f# Em
Говорил: все будет нормально.
> Am D
И я кричал им, что мы все вместе,
> H
Да как-то слушалось это банально.
Чем ближе к смерти, тем чище люди,
Чем дальше в тыл, тем жирней генералы.
Здесь я видел, что может быть будет
С Москвой, Украиной, Уралом.
Восемнадцать лет - это немного,
Когда бродишь по Тверской да без денег.
И немало, когда сердце стало,
А от страны тебе - пластмассовый веник.
Страна поет им рок-н-рольные песни,
Говорит - все будет нормально.
Страна кричит, что мы все вместе,
Да звучит это как-то банально.
Умирали пацаны страшно,
Умирали пацаны просто.
И не каждый был снаружи прекрасным,
И не все были высокого роста.
Документ
Категория
Ноты, аккорды
Просмотров
19
Размер файла
15 Кб
Теги
пацаны, ддт
1/--страниц
Пожаловаться на содержимое документа