close

Вход

Забыли?

вход по аккаунту

?

ДДТ - Свобода

код для вставкиСкачать
Метель августа (2000)
Свобода
!(Ю. Шевчук)
> Am F C E
Я еду к тебе - это странное место
Туман на болоте без цвета и дна
Я твой вечный жених, золотая невеста
Лижут мысли, как мухи, стекла окна
Зима на спине, я не стар и не молод
Ночь похожа на лифт, в котором умер поэт
Я по уши сыт, да разбудил горький голод
Руки чувствуют пульс, я зеваю на свет
Мама, разбуди черным вечером
Мама, чтоб я ночь не проспал
Мама, я уйду, как намечено,
Мама, мама, мама как я устал
Гроза по глазам - напротив морщинами
Скребет по стеклу седая рука
Мимо павших идей проплывают причинами
В тумане чуть видимы ветви века
Растет за окном последняя станция
Здесь отпевают верхний этаж
Здравствуй, любовь, получи информацию
Да не промахнись и сотри макияж
Мама, разбуди черным вечером
Мама, чтоб я ночь не проспал
Мама, я уйду, как намечено,
Мама, мама, мама как я устал
-
[E|-------0---------0---------0------------0--------------------|
B|-------1---------3---------1----------3---3------------------|
G|-----2---2-----2---2-----2---2-----4^5------4----------------|
D|-------------3---------3---------5---------------------------|
A|---0---------------------------------------------------------|
E|-------------------------------------------------------------|]
Я еду к тебе, это странное место,
[E|-------0---------0---------0--------------------0------------|
B|-------1---------3---------1-----------1^0------3------------|
G|-----2---2-----2---2-----2---2-------0----0-----4------------|
D|-------------3---------3-----------0--------0---5------------|
A|---0---------------------------------------------------------|
E|---------------------------------3---------------------------|]
Туман на болоте без цвета и дна.
Я твой вечный жених, золотая невеста,
Лижут мысли, как мухи, стекла окна.
Зима на спине, я не стар и не молод.
Ночь похожа на лифт, в котором умер поэт.
Я по уши сыт, да разбудил горький голод,
Руки чувствуют пульс, я зеваю на свет.
[E|-------0-----------------0--------------0--------------------|
B|-------1--------3--------1------------0---0------------------|
G|-----2---2------2------0---0-------1^2------1----------------|
D|--------------0---0------------------------------------------|
A|--0------------------3---------------------------------------|
E|------------2--------------------0---------------------------|]
Мама, разбуди черным вечером,
Мама, чтоб я ночь не проспал.
Мама, я уйду, как намечено,
Мама, мама, мама, как я устал.
Гроза по глазам, напротив морщинами
Скребет по стеклу седая рука.
Мимо павших идей проплывают причинами,
В тумане чуть видимы, ветви - века,
Растет за окном последняя станция,
Здесь отпевают, верхний этаж.
Здравствуй, любовь, получи информацию,
Да не промахнись и сотри макияж.
Мама, разбуди черным вечером,
Мама, чтоб я ночь не проспал.
Мама, я уйду, как намечено,
Мама, мама, мама, как я устал.
!<Am D* C E D*>([200230])
Свобода...
-
> Am F+7 F G
Я еду к тебе, это странное место
> Am F+7 F G
Туман на болоте без цвета и дна
> Am F+7 F G
Я твой вечных жених, золотая невеста
> Am F+7 F G
Лижут мысли, как мухи, стекла окна
Зима на спине, я не стар и не молод
Ночь похожа на лифт в котором умер поэт
Я по уши сыт, да разбудил горький голод
Руки чувствуют пульс, я зеваю на свет
> Am D7 C E
Мама, разбуди чёрным вечером
> Am D7 C E
Мама, чтоб я ночь не проспал
> Am D7 C E
Мама, я уйду как намечено
> Am D7 C E
Мама, мама, мама как я устал
Гроза по глазам напротив морщинами
Скребет по стеклу седая рука
Мимо павших идей проплывают причинами
В тумане чуть видимы ветви-века.
Растет за окном последняя станция
Здесь отпевают верхний этаж
Здравствуй, любовь, получи информацию
Да не промахнись и сотри макияж
Мама, разбуди чёрным вечером
Мама, чтоб я ночь не проспал
Мама, я уйду как намечено
Мама, мама, мама как я устал
> Am Dm9 C E Am Dm9 C E
Свобода...
Документ
Категория
Ноты, аккорды
Просмотров
12
Размер файла
4 Кб
Теги
ддт, свобода
1/--страниц
Пожаловаться на содержимое документа