close

Вход

Забыли?

вход по аккаунту

?

ДДТ - Я еду к тебе

код для вставкиСкачать
*1997*
Я еду к тебе
> Am F
Я еду к тебе
> C E
Это странное место
Туман на болоте
Без цвета и дна
Я твой вечных жених,
Золотая невеста
Лижут мысли, как мухи,
Стекла окна
Зима на спине
Я не стар и не молод
Ночь похожа на лифт
В котором умер поэт
Я по-ущи сыт,
Но разбудил меня голод
Руки чувствуют пульс
Я зеваю на свет
Припев:Мама, разбуди меня вечером
Мама, чтоб я ночь не проспал
Мама, я уйду как намечено
Мама, мама как я устал
Колокола по глазам
На против морщинами
Скребет по стеклу
Седая рука
Мимо павших идей
Проплывают причинами
В тумане чуть видимо
Ветви века.
Растет за окном
Последняя станция
Здесь отпевают верхний этаж
Здравствуй, любовь,
Получи информацию
Да не промахнись
И сотри макияж
!Припев
Свобода } 4 раза
[---+---+---+---+
---+---+-O-+---+
---+-O-+---+---+
---+---+-O-+---+
---+---+---+---+
---+---+---+---+
---+---+---+---+
---+---+-O-+---+
---+-O-+---+---+
---+---+---+---+
---+---+---+---+
---+-O-+---+---+]
!Вступление - <Am (1) C E>
> Am (2) C E
!куплет - <Am> (следующий акорд: просто убирается
! указательный палец со 2 струны и ставится
! на 6) <С E>.
!проигрыш такой же как и вступление.
!"Свобода......" играется боем: <Am (2) C E>
-
!Вступление и 1-й куплет:
1|-------0--------------------------------------------|
2|---------1----------3----------1-----------0^1^0----| 0^1^0 - вторую струну
3|-----2-----2------2---2------2---2-------0-------0--|на 1-м ладу не дергать!
4|----------------3----------3------------------------|
5|---0------------------------------------------------|
6|---------------------------------------3------------|
1|-------0----------------------------------------------0-|
2|---------1----------3----------1-----------0-1^0------3-|
3|-----2-----2------2---2------2---2-------0-------0----4-|
4|----------------3----------3--------------------------5-|
5|---0----------------------------------------------------|
6|---------------------------------------3----------------|
! . в конце проигрыша
Я еду к тебе
Это странное место
Туман на болоте
Без цвета и дна
Я твой вечных жених,
Золотая невеста
Лижут мысли, как мухи,
Стекла окна
Зима на спине
Я не стар и не молод
Hочь похожа на лифт
В котором умер поэт
Я по уши сыт,
Да разбудил меня голод
Руки чувствуют пульс
Я зеваю на свет
Припев:1|-------0-----------------------0----------------0-------|
2|---------1----------3------------1------------0---0-----|
3|-----2-----2------2---2------0-----0-------1^2------1---|
4|--------------------------------------------------------|
5|--0-----------------------------------------------------|
6|----------------2----------3-------------0--------------|
Мама, разбуди меня вечером
Мама, чтоб я ночь не проспал
Мама, я уйду как намечено
Мама, мама как я устал
Соло:1|--------0---------0----------------0-----|--------0---------7-0------------
2|------0---6---------6------------3---3---|------0---6-----------6----------
3|----5-------5---5-----5------4^5-------4-|----5-------5---5-------5--------
4|--7-----------7---------7--5-------------|--7-----------7------------------
5|-----------------------------------------|---------------------------------
6|-----------------------------------------|---------------------------------
[--------5-----|--------0---------0----------------0-----|--------0-----------
------3---3---|------0---6---------6------------3---3---|------0---6---------
----4-------4-|----5-------5---5-----5------4^5-------4-|----5-------5---5---
--5-----------|--7-----------7---------7--5-------------|--7-----------7-----
--------------|-----------------------------------------|--------------------
--------------|-----------------------------------------|--------------------
--0----------0---|
----6--------3---| - в общем-то похоже
------5------4---|
--------7----5---|
-----------------|
-----------------|]
!2-й куплет играется в две гитары: одна продолжает соло,
!другая - как 1-й куплет или вроде этого
Гроза по глазам
Hапротив морщинами
Скребет по стеклу
Седая рука
Мимо павших идей
Проплывают причинами
В тумане чуть видимо
Ветви века.
Растет за окном
Последняя станция
Здесь отпевают верхний этаж
Здравствуй, любовь,
Получи информацию
Да не промахнись
И сотри макияж
!Припев
Дальше боем:<Am> <D*>([200230]) <C E>
Свобода } ~4 раза
Документ
Категория
Ноты, аккорды
Просмотров
11
Размер файла
5 Кб
Теги
тебе, еду, ддт
1/--страниц
Пожаловаться на содержимое документа