close

Вход

Забыли?

вход по аккаунту

?

Дебюсси Клод - Девушка с льнаными волосами

код для вставкиСкачать
ƒевушка с льнаными волосами
!строй стандартный
!јккорды можно играть арпеджато
!ќбозначени¤:
!h = пулл
!p = хаммер
!s = слайд
!H = флажолет
!A = искусственный флажолет
!темп: 66
!размер: 3/4
!играть спокойно с выражением
! , . , . , . , . , . , . , . , . , .
||-10-----------7---------7-|-10---7---------7-----3p0-|-3---2-0------------|
||----------------8-----8---|--------8-----8---8---1---|-0-------3----------|
||------------------9-------|----------9-----------0---|-0------------------|
||--------------------------|----------------------2---|-0------------------|
||--------------------------|----------------------3---|--------------------|
||--------------------------|--------------------------|-3------------------|
! , . , . , . , . , . , . , . , . , .
|-------------------|-5----------10---7-----7-|-----10---7------12-------|
|-------------------|-7-----------7---8---8---|-10-------7-------9-------|
|---------------H12-|-7-----------7---9---9---|-11-------8-------9-------|
|-------------------|-0------------------10---|-12-------9-------9-------|
|------------H7-----|-----------------7-------|--------------------------|
|-------------------|-------------7-----------|-10-------7-------0-------|
! , . , . , . , . , . , . , . , . , .
|----------------8--|-10-----------7----0-----7-|-10---7----0-----7-----3p0-|
|------12-----------|--0-------------8------8---|--0-----8------8---8---1---|
|-------------------|--0----------------0-------|--0--------0-------7---2---|
|-------------------|------------------11-------|----------11-------9---0---|
|-------------------|--8---------------12-------|--8-------12-------7-------|
|-------------------|---------------------------|---------------------------|
! , . , . , . , . , . , . , . , . , .
|-3---2-0-----------------|-------------------------|-0--------8-----H12------|
|-0-------3---------1-0---|---------------------0-3-|-3---8s10----------------|
|-0---------------------2-|-0-----------------------|-2-----------H7------H5--|
|-0-----------------------|-----4-2-0---------------|-0-----------------------|
|-------------------------|-------------------3-2-0-|-------------------------|
|-3-----------------------|-------------------------|-3-----------------------|
! , . , . , . , . , . , . , . , . , .
|------H12---------------|-------------------------|-----------------------5-|
|-0--H7------------1-0---|-----0-------------------|---------------------6---|
|---------H7-----------2-|-0h2-------2-0-----------|---------------2-5-7-----|
|-0----------------------|-2-----4-2-----0---4-2---|---0-------0-3-----------|
|------------------------|-3-----5-3-------3-----2-|-0---3-------------------|
|-3--------------3-------|-3-----5-3-----2-0-----3-|-1-------3---------------|
! , . , . , . , . , . , . , . , . , .
|--8--------------------|-7---5---0---------------|---------------------0---|
|--8--12-10-8-----------|-5-----8-5-----------3-1-|-0-----------0---------2-|
|--9--------------------|-5-------5---------------|-0---2-0-----2-----------|
|-10--------------------|-5-------4---------------|-2-------2---------------|
|-----------------------|-0-------5---------------|-0---------------2-------|
|--8--------------------|-------------------------|-------------------------|
! , . , . , . , . , . , . , . , . , ! .
|-0-----------------0---|-0-------0-2-4-7-9--12-9-|-12------------------12---|
|-0--------------0------|-0---0-2-------0-0-------|--9-------------9-12------|
|-1------------4-6----6-|-1---------------6-------|--9--------9-11------12---|
|--------2-4-6---7------|-2-------2-4-6---7-------|--9---9-11----------------|
|----2-4----------------|-----2-4---------0-------|--------------------------|
|-0---------------------|-0-----------------------|--0-------------------8---|
! , . , . , . , . , . , .
|-----10h12p10---------5------3-2-0-|-0--------------------------5-|
|--------------H12-----2------------|-1----3h5p3-0-------------8-7-|
|-----11-------H12-----2------------|-0----------0-------------5---|
|------0---------------2------------|-2----4-----2----7--------0---|
|---------------------------0-------|-3----5----------4------------|
|--------------H12------------------|-----------------5------------|
! , . , . , . , . , . , . , . , . , .
|-7-----3-0---3---7--10--|-7---3---0-------3------|-----------------0---3--|
|-5-----3-0---3---5---8--|-5---3---0-------1------|-0-------0---3---3---5--|
|-7-----0-0---0---7---9--|-7---0---0-------2------|-0-----0-0---4---0---4--|
|-5-----2-0---2---5---9--|-5---2-----------0------|-0-----2-0---2----------|
|------------------------|---------3--------------|-------2----------------|
|------------------------|------------------------|-3----------------------|
! , . , . , . , . , . , . , . , . , .
|-7---3---7--------------|-------------------|------------------------------|
|-8---5---5-------3------|-8-----------------|------------H12-----------H12-|
|-7---4---5--------------|-------------------|---------------H12-----H12----|
|---------5-------4------|------------H5-----|------------------H7----------|
|---------0-------5------|-7-----------------|------------------------------|
|------------------------|-8-----------------|------------------------------|
! , . , . , . , . , . , . , . , . , .
|----------------------------3p0-|-3-----2-----0-----|-------------------|
|-----H12----------H12-----------|-0-----------------|-3-----------0-----|
|--------H12----H12---H12--------|-0-----------------|-4--------5-----2--|
|-H5--------H7-------------------|-2-----------------|-5-----------------|
|-----------------------0--------|-------------------|-5-----------------|
|--------------------------------|-0-----------------|-3-----------------|
! , . , . , . , . , . , . , . , . , .
|-------------------------|-------------------------|-------------3-5-8-10-12-|
|-----0-------------------|-------------------------|-----------5-3-5-8-10-13-|
|-0h2-------2-0-----------|-------------------------|---0-2-5-7-5-------------|
|-2-----4-2-----0---4-2---|---0-2-----0-2-----0-2---|---0-2-5-7---------------|
|-3-----5-3-------3-----2-|-0-----2-3-----2-0-----2-|-3-----------------------|
|-3-----5-3-----2-0-----3-|-2-----3-5-----3-2-----3-|-5-----------------------|
! , . , . , . , . , . , . , . , . , . , . , . , .
|-----A3--------------|-------------------|---3--------------|-------------||
|-----3---------------|--3----------------|------------------|-------------||
|----4----------------|-------------------|------------------|-------------||
|---5-----------------|-------------------|--5---------------|-------------||
|--5------------------|-5-----------------|------------------|-------------||
|-3-------------------|-------------------|-3----------------|-------------||
! т¤нуть..................................................................
Документ
Категория
Ноты, аккорды
Просмотров
10
Размер файла
7 Кб
Теги
клод, дебюсси, волосами, льнаными, девушка
1/--страниц
Пожаловаться на содержимое документа