close

Вход

Забыли?

вход по аккаунту

?

Дельфин - Надежда

код для вставкиСкачать
Глубина резкости (1998), Я буду жить (Live) (2000)
Надежда
>Bm G# F
Вступление:[E-----------1----------------1--
B---------1--------4------1-----
G-------3---------5------2------
D-----3----------6------3-------
A---1---------------------------
E-1-----------------------------]
!Мелодия (с октавной позицией лучше)
>Bm G# F
[E-------------------------------
B-------------------------------
G-------------------------------
D-3------3----------------------
A----6-4----6-4-6--4-6-4--3-4-6-
E-------------------------------]
!Во время Тяжелой части <Bm>, <Bm>, <G#>, <F>, - драйвом
>Bm
(1)Не осталось ни сил, ни ощущения боли,
Тоской изъедена душа, как личинками моли,
>G#
Все катится в пропасть, причем уже не в первый раз,
>F
И равен нулю смысл дружеских фраз.
Все кому-то подарено, потеряно, продано,
И сердце, кровью облитое, за ужином подано.
Осталась только грязь на дне карманов одежды
И какое-то чувство, что-то вроде надежды.
(2)Она слышит шаги, они все тише и тише.
Он снова стал журавлем, и будет жить где-то выше.
Она его не ждет, она простила и плачет,
А тупая подруга ее надежды дурачит.
Время тихо уходит, и наивная ложь
К запястью левой руки примеряет свой нож.
Надежда была и осталась напрасной,
Она капает на пол липкой жидкостью красной.
(3)Ты изначально один, но даже если есть друг,
Он не увидит всех бед на ладонях твоих рук,
Он за тебя не станет смелым, если ты оторопел,
И за тебя сказать не сможет то, что ты сказать хотел.
Он может только помочь, если что-то не так,
Когда глаза твои застелит безысходности мрак,
Когда слезы ровно делят на три части лицо,
И не осталось надежды на себя самого.
Надежда - самообман, но это все что у нас есть.
Она ходит по рукам, продавая свою честь,
Эта лживая тварь пыль пускает в глаза,
Исчезая в тот момент, когда она так нужна.
Она будет уходить, и возвращаться много раз,
Всегда держа на расстоянии заветный алмаз.
Я без надежды убит, тоской навылет прострелян,
Потому что я надеялся, а не был уверен.
-
!Тeкc пecни пиcaть нe cтoит, тaк кaк oн yжe имeeтcя нa caйтe и нe вызывaeт y
!мeня пpитeнзий, a вoт c кaчecтвoм пoдбopa тaбyлaтypы я xoтeл бы пocпopить:
!ВOТ МOИ ПPEДЛOЖEНИЯ:
[e|-------------------------------------------------------------------------|
b|--6---4---2---6------4---2---4------2---4---2------1---2---4---6---и.т.п.|
h|-------------------------------------------------------------------------|
D|-------------------------------------------------------------------------|
A|-------------------------------------------------------------------------|
E|-------------------------------------------------------------------------|]
-
!Вступление:
!Aккopд <Am> внaчaлe пepeбиpaeтcя нepaвнoмepнo.
!Ктo cлышaл пecню - тoт пoймeт.
> Am F E
1|0---------|--1--|--0--
2|--0-------|--3--|--2--
3|----2-----|--3--|--2--
4|------2---|--2--|--1--
5|-------1--|--1--|--0--
6|--------0-|--1--|--0--
!Aккopды <F> и <E> нa caмoм дeлe тoжe игpaютcя
!нe мгнoвeннo, нo дocтaтoчнo быcтpo.
Документ
Категория
Ноты, аккорды
Просмотров
4
Размер файла
3 Кб
Теги
дельфин, надежда
1/--страниц
Пожаловаться на содержимое документа