close

Вход

Забыли?

вход по аккаунту

?

Дельфин - Сахар

код для вставкиСкачать
Ткани (2001)
Сахар
!Пpипeв в тoй жe тoнaльнocти, чтo и y Дeльфинa.
[E||--7-6--6---6-6---4---4--4-4-5--5---5-5--5-5--5-5------------|
B||--7-6--6---6-6---4---4--4-4-7--7---7-7--7-7--7-7------------|
G||--9-8--8---8-8---6---6--6-6-7--7---7-7--7-7--7-7------------|
D||--9-8--8---8-8---6---6--6-6-5--5---5-5--5-5--5-5------------|
A||--7-6--6---6-6---4---4--4-4-5--5---5-5--5-5--5-5------------|
E||--7-6--6---6-6---4---4--4-4-5--5---5-5--5-5--5-5------------|
E||--7-7-7-7-7-7-7-7-7-6--6---6-6--4--4--4-4-2-2-0--0--2-2-2-2--0-0-----||
B||--7-7-7-7-7-7-7-7-7-6--6---6-6--4--4--4-4-2-2-0--0--2-2-2-2--0-0-----||
G||--9-9-9-9-9-9-9-9-9-8--8---8-8--6--6--6-6-4-4-2--2--4-4-4-4--2-2-----||
D||--9-9-9-9-9-9-9-9-9-8--8---8-8--6--6--6-6-4-4-2--2--4-4-4-4--2-2-----||
A||--7-7-7-7-7-7-7-7-7-6--6---6-6--4--4--4-4-x-x-x--x--x-x-x-x--x-x-----||
E||--7-7-7-7-7-7-7-7-7-6--6---6-6--4--4--4-4-x-x-x--x--x-x-x-x--x-x-----||]
!Pитм в пpипeвe бeшeный, пoэтoмy eгo пocлyшaть нaдo.
-
Текст:Я и она - бесполезные вещи
Весна на губах мелкой сеточкой трещин
Я исчезаю, она наблюдает
Ей нравится видеть как время меняет
Что будет на все то что было
Холодное сердце печалью застыло
И каждое утро ее бесконечно
Мне хочется спать, она жить будет вечно
Тихие птицы за прутьями клетки
С палки на палку, с ветки на ветку
Напиться водою оставленной кем-то
Черные крылья с белою лентой
Вплетаются в волосы руки
Утоляя теплом долгий голод разлуки
Если буду молчать, мне никто не ответит
Я и она очень старые дети
Давай отсюда уйдем, мне станет легче дышать
Здесь хозяева дети, они будут стрелять
Они запомнили лица и стоят за углом
Пока мы можем идти, давай отсюда уйдем
Небо клочками упало в глазницы
И серою бездной устало искрится
Через края вытекая дождями
Пасмурно бледными прошлыми днями
Разорвала жизнь на столетия
Я ее звал крича междометия
И голос срывался все выше и выше
Я и она пока еще дышим
Давай отсюда уйдем, мне станет легче дышать
Здесь хозяева дети, они будут стрелять
Они запомнили лица и стоят за углом
Пока мы можем идти, давай отсюда уйдем } 2 раза
Документ
Категория
Ноты, аккорды
Просмотров
16
Размер файла
2 Кб
Теги
дельфин, сахар
1/--страниц
Пожаловаться на содержимое документа