close

Вход

Забыли?

вход по аккаунту

?

Дельфин - Серебро

код для вставкиСкачать
Серебро
Мы с тобою - две капли разные
Одной воды... Слезы облака...
>Dm Dm
Разобъемся об землю стразами
>Dm Dm
Разлетимся вокруг да около
>F F
Бесконечное вниз стремление
>Am7 Am7
Награжденное солнца взглядом
>(1) (1)
Принесет траве упоение
>(1) (1)
Нас с тобою положат рядом
!Внимательно играйте проигрыш -
!слушайте как играет гитарист Дельфина!!!
!Подряд играются аккорды:
!<F>-<F>-<Am7>-<Am7>-<Dm>-<Dm>-<Dm>-<Dm> } 2 раза
>F F
Может быть попадем на лица
>Am7 Am7
По щекам разотрут руками
>Dm Dm
Нас не станет с тобой сестрица
>Dm Dm
Сохнет кожа воды следами
>F F
Или может быть в стекла оконные
>Am7 Am7
Сердцем осени постучимся
>Dm Dm
Разбудить нам печали сонные
>Dm Dm
Тихим стоном души случится
!В припеве играется перебор:
[E||---5---5-------5---8---1---1---1-------1---1---||
B||--6---6---6---6---8---3---3---3---3---3---3---3||
G||-5---5-------5---9---2---2---2-------2---2-----||
D||3-----------3---7---0---0-----------0----------||
A||-----------------------------------------------||
E||-----------------------------------------------||]
!Здесь очень важен правильный переход с аккорда <F> на <Am7>
!Прислушайтесь к оригиналу!!!
>F Am7 Dm
И нас с тобою не отыскать
>F Am7 Dm
Все что мы есть - вода
>F Am7 Dm
Лишь остается ждать
>F Am7 Dm
Серебро дождя
!Во втором проигрыше играется приведенный выше перебор } 4 раза
!Сначала, разумеется, припев...: )
>F F
Нам с тобою земли не коснуться
>Am7 Am7
Мы исчезнем в горящем пламени
>Dm Dm
Чтобы еще один раз завернуться
>Dm Dm
В нежный шелк темно-синего знамени
>F F
Чтобы еще раз поднятся
>Am7 Am7
И чтобы опять пролится
>Dm Dm
Только бы не остатся
>Dm Dm
Вечности льдом искрится
!Припев } 2 раза
!Строго придерживаться последовательности аккордов и их постановки.
!Перебор на протяжении всей песни одинаковый
!для ВСЕХ аккордов: 4,3,2,1,3,2,1,2, т.е.:
[E||--------о----о----||
B||------о----о---о--||
G||----о----о--------||
D||--о---------------||
A||------------------||
E||------------------||]
!Аккорды:
>[XX0231] Dm
>[XX3565] F
>[XX7988] Am7
> F
|---|---|-3-|---|
|---|---|---|-4-|
|---|---|-2-|---|
|-1-|---|---|---|
|-x-|---|---|---|
|-x-|---|---|---|
! III
> Am7
|---|-3-|---|
|---|-2-|---|
|---|---|-4-|
|-1-|---|---|
|-x-|---|---|
|-x-|---|---|
! VII
Документ
Категория
Ноты, аккорды
Просмотров
9
Размер файла
3 Кб
Теги
дельфин, серебро
1/--страниц
Пожаловаться на содержимое документа